» » »

Vertical Horizon, All Of You Tabs (ver.1)

Artists:  A B C D E F G H I J K L M N O P Q R S T U V W X Y Z # 

All Of You Tabs (ver.1)

Vertical Horizon Tabs
 Rating:
4/5 (4 votes)
All Of You lessons Tabs too difficult? Try these video lessons and learn fast
1
                
Last update: November 11th, 2002


 Tune guitars down 1/2 step

 Aadd9    577600  D5/F# 2x023x  C5    x355xx 
 Dmadd9   x57760  Gadd9 3x023x  Cadd9 x32033
 Fmaj7#11 133200  A5    x022xx  Dm    xx0231


Tune guitar down 1/2 step

 [intro and verse riff]

   Aadd9 Dmadd9 Aadd9 Dmadd9 Aadd9 Dmadd9 Aadd9 Fmaj7#11

01 You say I'm too quiet. Holding things up in my head
02 I say so much, but you don't buy it. Don't wanna wake up alone in my head

 [bridge riff (dist.)]

      D5/F# Gadd9 A5    C5            D5/F# Gadd9 A5    C5  

Eb |------------------------------------------------------------------------------
Bb |--3-----3-------------------------2-----2-------------------------------------
Gb |--2-----2-----2-----5-------------3-----3-----2-----5-5---5-------------------
Db |--0-----0-----2-----5-------------0-----------2-----5-5---5-------------------
Ab |--------------0-----3-------------------------0-----3-3---3-------------------
Eb |--2-----3-------------------------2-----3-------------------------------------
      *       *       *       *       *       *       *       * 

03                                               Say that you'll never go
04                                               Don't go, don't go

 [chorus riff (dist.)]

      Cadd9 G5      Dm

Eb |--3-3---3-3-3---1-------------------------------------------------------------
Bb |--3-3---3-3-3---3-------------------------------------------------------------
Gb |--0-0---0-0-0---2-------------------------------------------------------------
Db |--2-2---0-0-0---0-------------------------------0-----------------------------
Ab |--3-3---x-x-x---------------------3-3-----------------------------------------
Eb |--------3-3-3---------------------------3-3-3---------------------------------
      *       *       *       *       *       *       *       * 

05                         I need a lot of you
            
Submit corrections

comments powered by Disqus
↑ Back to top | Vertical Horizon Tabs for All Of You. Lyrics for acoustic guitar and electric guitar. 1 Tablatures and chords are parodies/interpretations of the original songs. You may use it for private study, scholarship, research or language learning purposes only