» » »

Verse, Weather To A Stone Tabs (ver.1)

Artists:  A B C D E F G H I J K L M N O P Q R S T U V W X Y Z # 

Weather To A Stone Tabs (ver.1)

Verse Tabs
 Rating:
4/5 (4 votes)
Weather To A Stone lessons Tabs too difficult? Try these video lessons and learn fast
1
                ------------------------------------------------------------------------------
                           Verse - Weather to a Stone
------------------------------------------------------------------------------
Band            : Verse
Song            : Weather to a Stone
Album           : From Anger and Rage

e|---------------------------------------------------------------------------|
B|---------------------------------------------------------------------------|
G|-10\9-7/9-4-4-4--10\9-7/9-5-5-5--10\9-7/9-4-4-4--10\9-7/9-5-5-5-5----------|
D|-10\9-7/9-4-4-4--10\9-7/9-5-5-5--10\9-7/9-4-4-4--10\9-7/9-5-5-5-5--3-5-7-7-|
A|--8\7-5/7-2-2-2---8\7-5/7-3-3-3---8\7-5/7-2-2-2---8\7-5/7-3-3-3-3----------|
E|---------------------------------------------------------------------------|

e|----------------------------------------------------------------------------|
B|----------------------------------------------------------------------------|
G|-9-999-9-9-9-9--9-999-9-9-9-9--12-121212-12-12-12/14--10-101010-10-10-10-10-|
D|-9-999-9-9-9-9--9-999-9-9-9-9--12-121212-12-12-12/14--10-101010-10-10-10-10-|
A|-7-777-7-7-7-7--7-777-7-7-7-7--10-101010-10-10-10/12---8--8-8-8--8--8--8--8-|
E|----------------------------------------------------------------------------|
   PM...            ...              . . .                  . . .


e|------------------------------------------------------------|
B|------------------------------------------------------------|
G|-9-999-9-9-9-9--9-999-9-9-9-9--5-555-5-5-5-5--7-777-7-7-7-7-|
D|-9-999-9-9-9-9--9-999-9-9-9-9--5-555-5-5-5-5--7-777-7-7-7-7-|
A|-7-777-7-7-7-7--7-777-7-7-7-7--3-333-3-3-3-3--5-555-5-5-5-5-|
E|------------------------------------------------------------|
   PM...            ...            ...            ...



e|----------------------------------------------------------------------------|
B|----------------------------------------------------------------------------|
G|-9-999-9-9-9-9--9-999-9-9-9-9--12-121212-12-12-12/14--10-101010-10-10-10-10-|
D|-9-999-9-9-9-9--9-999-9-9-9-9--12-121212-12-12-12/14--10-101010-10-10-10-10-|
A|-7-777-7-7-7-7--7-777-7-7-7-7--10-101010-10-10-10/12---8--8-8-8--8--8--8--8-|
E|----------------------------------------------------------------------------|
   PM...            ...              . . .                  . . .


e|-------------------------------------------------------|
B|-------------------------------------------------------|
G|-9-999-9-9-9-9--9-999-9-9-9-9--5-5-5-5-5----7-7-7-7-7--|
D|-9-999-9-9-9-9--9-999-9-9-9-9--5-5-5-5-5----7-7-7-7-7--|
A|-7-777-7-7-7-7--7-777-7-7-7-7--3-3-3-3-3----5-5-5-5-5--|
E|-------------------------------------------------------|
   PM...            ...          . . . .      . . . .

e|---------------------------------------------------------|
B|---------------------------------------------------------|
G|-9--9-9-9-9--9-9--9-9-9-9--9-9--9-9-9-9--9-9--9-9-9-9--9-|
D|-9--9-9-9-9--9-9--9-9-9-9--9-9--9-9-9-9--9-9--9-9-9-9--9-|
A|-7--7-7-7-7--7-7--7-7-7-7--7-7--7-7-7-7--7-7- 7-7-7-7--7-|
E|---------------------------------------------------------|
    PM. . .         . . .         . . .         . . .

e|-------------------------------------------|
B|-------------------------------------------|
G|-5-5-5-5-5-5/7-9-10\9--7-7-7-7-7-7/9-10-12-|
D|-5-5-5-5-5-5/7-9-10\9--7-7-7-7-7-7/9-10-12-|
A|-3-3-3-3-3-3/5-7--8\7--5-5-5-5-5-5/7--8-10-|
E|-------------------------------------------|
 PM. . . .               . . . .


e|-------------------------------------------|
B|-------------------------------------------|
G|-5-5-5-5-5-5/7-9-10\9--7-7-7-7-7-7/9-14-14-|
D|-5-5-5-5-5-5/7-9-10\9--7-7-7-7-7-7/9-14-14-|
A|-3-3-3-3-3-3/5-7--8\7--5-5-5-5-5-5/7-12-12-|
E|-------------------------------------------|
 PM. . . .               . . . .

e|--------------------------------------------------------|
B|--------------------------------------------------------|
G|-9--9-9-9-9--9-9--9-9-9-9--9-9--9-9-9-9--9-9--9-9-9-9-9-|
D|-9--9-9-9-9--9-9--9-9-9-9--9-9--9-9-9-9--9-9--9-9-9-9-9-|
A|-7--7-7-7-7--7-7--7-7-7-7--7-7--7-7-7-7--7-7- 7-7-7-7-7-|
E|--------------------------------------------------------|
    PM. . .         . . .         . . .         . . .

e|-----------------------------------------------------------|
B|-----------------------------------------------------------|
G|-9--9-9-9-9--9-9--9-9-9-9--9-9--9-9-9-9--9-9--9-9-9--9-9-9-|
D|-9--9-9-9-9--9-9--9-9-9-9--9-9--9-9-9-9--9-9--9-9-9--9-9-9-|
A|-7--7-7-7-7--7-7--7-7-7-7--7-7--7-7-7-7--7-7- 7-7-7--7-7-7-|
E|-----------------------------------------------------------|
    PM. . .         . . .         . . .         . .    . .
            
Submit corrections

comments powered by Disqus
↑ Back to top | Verse Tabs for Weather To A Stone. Lyrics for acoustic guitar and electric guitar. 1 Tablatures and chords are parodies/interpretations of the original songs. You may use it for private study, scholarship, research or language learning purposes only