» » »

Verse, Waiting On Revolution Tabs (ver.1)

Artists:  A B C D E F G H I J K L M N O P Q R S T U V W X Y Z # 

Waiting On Revolution Tabs (ver.1)

Verse Tabs
 Rating:
4/5 (4 votes)
Waiting On Revolution lessons Tabs too difficult? Try these video lessons and learn fast
                OK this is my first tab ever, I hope i do good, let me know what you think
HxC for life.

Bass intro

then

e--------------------------------------------------------------------------|
b--------------------------------------------------------------------------|
g--99999999999-----777777777777----11-------12------12--11--7--------------|
d--99999999999-----777777777777----11--x12--12--x12--x---x--x--------------|
a--77777777777-----555555555555-----9-------10------10---9--5--------------|
E--------------------------------------------------------------------------|


bass line

pickslides

then

e--------------------------------------------------------------------------|
b--------------------------------------------------------------------------|
g--------------------------------------------------------------------------|
d-2*-2*--2-----------------------------------------------------------------|
a-2*-2*--2-----------------------------------------------------------------|
E-0*-0*--0-----------------------------------------------------------------|

you'll be able to figure out how many times they go through the rotation of pickslide 
palm muted e and then theres the break down

but first


e--------------------------------------------------------------------------|
b--------------------------------------------------------------------------|
g--12------11------7-------------------------------------------------------|
d---x-------x------x-------------------------------------------------------|
a--10-------9------5-------------------------------------------------------|
E--------------------------------------------------------------------------|

breakdown

e---------------------------------------------------------------------------|
b-------------------------------12-*12-*12-*--------------12*12*12*---------|
g-------------------12-----------x-*-x-*-x-*--14-----------x*-x*-x*-11------|
d-2222222222222222*--x-222222*---9-*-9-*-9-*---x--222222*--9*-9*-9*--x------|
a-2222222222222222*-10-222222*----------------12--222222*------------9------|
E-0000000000000000*----000000*--------------------000000*-------------------|


e---------------------------------------------------------------------------|
b---------------------------------------------------------------------------|
g---------11*11*11*--9------------------------------------------------------|
d-222222*--x*-x*-x*--x--2222222*----2---------------------------------------|
a-222222*--9*-9*-9*--7--2222222*----2--let that ring------------------------|
E-000000*---------------0000000*----0---------------------------------------|

Well thats it, i dont know the acoustic riff at the end, but they don't play that live 
soo it doesnt matter.

*=palm mute
x=dead string/ dont strum



thanks HxC for life.
            
Submit corrections

comments powered by Disqus
↑ Back to top | Verse Tabs for Waiting On Revolution. Lyrics for acoustic guitar and electric guitar. Tablatures and chords are parodies/interpretations of the original songs. You may use it for private study, scholarship, research or language learning purposes only