>
 >
The New Fury

The New Fury Guitar Tabs

Verse - The New Fury chords, tabs, tablatures, lyrics

Guitar lessons | Add/correct | Request | Top 50 tabs Artists:  A B C D E F G H I J K L M N O P Q R S T U V W X Y Z 0-9

The New Fury Guitar Tabs – Verse

CD, Sheet music, Poster

Do you like The New Fury? Share with your friends now
Tabs
-------------------------------------------------------------------------------
-------------------------------------------------------------------------------

Tuning: Half Step Down (Eb/D#)

      E  S E  S S S E  S E  S S S    E  S E  S S S E  S E  S S  S  
D#||----------3-------------3-----|----------3-------------3------|
A#||--5-------------5-------------|--5-------------5---------5s-7-|
F#||-------4------4------4------4-|-------4------4------4---------|
C#||-----5------5------5------5---|-----5------5------5-----------|
G#||------------------------------|-------------------------------|
D#||------------------------------|-------------------------------|


  E   S  E  S  S  S E   S  E  S  S  S  
--------------------------------------|
--8---------8-------7---------7-------|
---------0--------0--------0--------0-|
-----(5)------(5)------(5)------(5)---|
--------------------------------------|
--------------------------------------|


   E    S   E    S   S   S   E    S   E    S   S   S   
------------------------------------------------------|
-----------(3)----------(3)----------(3)----------(3)-|
--(4)-----------(4)---------(4)-----------(4)---------|
-------(5)----------(5)----------(5)----------(5)-----|
------------------------------------------------------|
------------------------------------------------------|


  E  S E  S S S E  S E  S S S    E  S E  S S S E  S E  S S S  
----------3-------------3-----|----------3-------------3-----|
--5-------------5-------------|--5-------------5-------------|
-------4------4------4------4-|-------4------4------4------4-|
-----5------5------5------5---|-----5------5------5------5---|
------------------------------|------------------------------|
------------------------------|------------------------------|


    ^                                                             
    W                                                          
----0----------------|
----0----------------|
----0----------------|
----2----------------|
---------------------|
---------------------|

The rest of the song is played in 3/4 time.


LEFT GUITAR:

  E  S S S S E  S S S S    E  S S S S E  S S S S  
------------------------|------------------------|
--5--5-5-5-5-5--5-5-5-5-|--5--5-5-5-5-5--5-5-5-5-|
--4--4-4-4-4-4--4-4-4-4-|--4--4-4-4-4-4--4-4-4-4-|
--5--5-5-5-5-5--5-5-5-5-|--5--5-5-5-5-5--5-5-5-5-|
--3--3-3-3-3-3--3-3-3-3-|--3--3-3-3-3-3--3-3-3-3-|
------------------------|------------------------|


  E  S S S S E  S S S S    E  S S S S E  S S S S  
--0--0-0-0-0-0--0-0-0-0-|--0--0-0-0-0-0--0-0-0-0-|
--0--0-0-0-0-0--0-0-0-0-|--0--0-0-0-0-0--0-0-0-0-|
--0--0-0-0-0-0--0-0-0-0-|--0--0-0-0-0-0--0-0-0-0-|
--2--2-2-2-2-2--2-2-2-2-|--2--2-2-2-2-2--2-2-2-2-|
--2--2-2-2-2-2--2-2-2-2-|--2--2-2-2-2-2--2-2-2-2-|
--0--0-0-0-0-0--0-0-0-0-|--0--0-0-0-0-0--0-0-0-0-|


  E  S S S S E  S S S S    E  S S S S E  S S S S  
------------------------|------------------------|
--5--5-5-5-5-5--5-5-5-5-|--5--5-5-5-5-5--5-5-5-5-|
--4--4-4-4-4-4--4-4-4-4-|--4--4-4-4-4-4--4-4-4-4-|
--5--5-5-5-5-5--5-5-5-5-|--5--5-5-5-5-5--5-5-5-5-|
--3--3-3-3-3-3--3-3-3-3-|--3--3-3-3-3-3--3-3-3-3-|
------------------------|------------------------|


  E  S S S S E  S S S S    E  S S S S E  S S S S  
--0--0-0-0-0-0--0-0-0-0-|--0--0-0-0-0-0--0-0-0-0-|
--0--0-0-0-0-0--0-0-0-0-|--0--0-0-0-0-0--0-0-0-0-|
--0--0-0-0-0-0--0-0-0-0-|--0--0-0-0-0-0--0-0-0-0-|
--2--2-2-2-2-2--2-2-2-2-|--2--2-2-2-2-2--2-2-2-2-|
--2--2-2-2-2-2--2-2-2-2-|--2--2-2-2-2-2--2-2-2-2-|
--0--0-0-0-0-0--0-0-0-0-|--0--0-0-0-0-0--0-0-0-0-|


  E  S S S S E  S S S S    E  S S S S E  S S S S  
------------------------|------------------------|
--5--5-5-5-5-5--5-5-5-5-|--5--5-5-5-5-5--5-5-5-5-|
--4--4-4-4-4-4--4-4-4-4-|--4--4-4-4-4-4--4-4-4-4-|
--5--5-5-5-5-5--5-5-5-5-|--5--5-5-5-5-5--5-5-5-5-|
--3--3-3-3-3-3--3-3-3-3-|--3--3-3-3-3-3--3-3-3-3-|
------------------------|------------------------|


  E  S S S S E  S S S S    E  S S S S E  S S S S  
--0--0-0-0-0-0--0-0-0-0-|--0--0-0-0-0-0--0-0-0-0-|
--0--0-0-0-0-0--0-0-0-0-|--0--0-0-0-0-0--0-0-0-0-|
--0--0-0-0-0-0--0-0-0-0-|--0--0-0-0-0-0--0-0-0-0-|
--2--2-2-2-2-2--2-2-2-2-|--2--2-2-2-2-2--2-2-2-2-|
--2--2-2-2-2-2--2-2-2-2-|--2--2-2-2-2-2--2-2-2-2-|
--0--0-0-0-0-0--0-0-0-0-|--0--0-0-0-0-0--0-0-0-0-|


  E  S S S S E  S S S S    E  S S S S E  S S S S  
------------------------|------------------------|
--5--5-5-5-5-5--5-5-5-5-|--5--5-5-5-5-5--5-5-5-5-|
--4--4-4-4-4-4--4-4-4-4-|--4--4-4-4-4-4--4-4-4-4-|
--5--5-5-5-5-5--5-5-5-5-|--5--5-5-5-5-5--5-5-5-5-|
--3--3-3-3-3-3--3-3-3-3-|--3--3-3-3-3-3--3-3-3-3-|
------------------------|------------------------|


  E  S S S S E  S S S S    E  S S S S E  S S S S  
--0--0-0-0-0-0--0-0-0-0-|--0--0-0-0-0-0--0-0-0-0-|
--0--0-0-0-0-0--0-0-0-0-|--0--0-0-0-0-0--0-0-0-0-|
--0--0-0-0-0-0--0-0-0-0-|--0--0-0-0-0-0--0-0-0-0-|
--2--2-2-2-2-2--2-2-2-2-|--2--2-2-2-2-2--2-2-2-2-|
--2--2-2-2-2-2--2-2-2-2-|--2--2-2-2-2-2--2-2-2-2-|
--0--0-0-0-0-0--0-0-0-0-|--0--0-0-0-0-0--0-0-0-0-|


      PM PM PM PM PM PM PM PM PM PM PM PM  
  S S S  S  S  S  T  T  S  S  S  S  T  T   
------------------------------------------|
------------------------------------------|
------------------------------------------|
------------------------------------------|
--3-2-2--2--2--2--2--2--2--2--2--2--2--2--|
--1-0-0--0--0--0--0--0--0--0--0--0--0--0--|


      PM PM PM PM   PM PM PM       
  S S S  S  S  S  S S  S  S  S  S  
----------------------------------|
----------------------------------|
-----------------------2-----5p-4-|
--------------------2-----2-------|
--3-4-2--2--2--2--2---------------|
--1-2-0--0--0--0--0---------------|


      PM PM PM PM   PM PM PM PM PM  
  S S S  S  S  S  S S  S  S  S  S   
-----------------------------------|
-----------------------------------|
-----------------------------------|
-----------------------------------|
--3-2-2--2--2--2--2-2--2--2--2--2--|
--1-0-0--0--0--0--0-0--0--0--0--0--|


      PM PM PM PM   PM PM PM       
  S S S  S  S  S  S S  S  S  S  S  
----------------------------------|
----------------------------------|
-----------------------2-----5p-4-|
--------------------2-----2-------|
--3-4-2--2--2--2--2---------------|
--1-2-0--0--0--0--0---------------|


      PM PM PM PM   PM PM PM PM PM  
  S S S  S  S  S  S S  S  S  S  S   
-----------------------------------|
-----------------------------------|
-----------------------------------|
-----------------------------------|
--3-2-2--2--2--2--2-2--2--2--2--2--|
--1-0-0--0--0--0--0-0--0--0--0--0--|


      PM PM PM PM   PM PM PM       
  S S S  S  S  S  S S  S  S  S  S  
----------------------------------|
----------------------------------|
-----------------------2-----5p-4-|
--------------------2-----2-------|
--3-4-2--2--2--2--2---------------|
--1-2-0--0--0--0--0---------------|


      PM PM PM PM   PM PM PM PM PM        PM PM PM PM           
  S S S  S  S  S  S S  S  S  S  S     S S S  S  S  S  S Q    S  
-----------------------------------|---------------------------|
-----------------------------------|---------------------------|
-----------------------------------|---------------------------|
-----------------------------------|---------------------------|
--3-2-2--2--2--2--2-2--2--2--2--2--|--3-4-2--2--2--2--2--------|
--1-0-0--0--0--0--0-0--0--0--0--0--|--1-2-0--0--0--0--0--------|


      PM PM PM PM   PM PM PM PM PM  
  S S S  S  S  S  S S  S  S  S  S   
-----------------------------------|
-----------------------------------|
-----------------------------------|
-----------------------------------|
--3-2-2--2--2--2--2-2--2--2--2--2--|
--1-0-0--0--0--0--0-0--0--0--0--0--|


      PM   PM PM   PM PM PM PM PM  
  S S S  S S  S  S S  S  S  S  S   
----------------------------------|
----------------------------------|
----------------------------------|
----------------------------------|
--3-4-2--2-2--2--2-2--2--2--2--2--|
--1-2-0--0-0--0--0-0--0--0--0--0--|


      PM PM PM PM   PM PM PM PM PM  
  S S S  S  S  S  S S  S  S  S  S   
-----------------------------------|
-----------------------------------|
-----------------------------------|
-----------------------------------|
--3-2-2--2--2--2--2-2--2--2--2--2--|
--1-0-0--0--0--0--0-0--0--0--0--0--|


      PM   PM PM   PM PM PM PM PM  
  S S S  S S  S  S S  S  S  S  S   
----------------------------------|
----------------------------------|
----------------------------------|
----------------------------------|
--3-4-2--2-2--2--2-2--2--2--2--2--|
--1-2-0--0-0--0--0-0--0--0--0--0--|


      PM PM PM PM   PM PM PM PM PM  
  S S S  S  S  S  S S  S  S  S  S   
-----------------------------------|
-----------------------------------|
-----------------------------------|
-----------------------------------|
--3-2-2--2--2--2--2-2--2--2--2--2--|
--1-0-0--0--0--0--0-0--0--0--0--0--|


      PM   PM PM   PM PM PM PM PM  
  S S S  S S  S  S S  S  S  S  S   
----------------------------------|
----------------------------------|
----------------------------------|
----------------------------------|
--3-4-2--2-2--2--2-2--2--2--2--2--|
--1-2-0--0-0--0--0-0--0--0--0--0--|


      PM PM PM PM   PM PM PM PM PM        PM   PM PM           
  S S S  S  S  S  S S  S  S  S  S     S S S  S S  S  S Q    S  
-----------------------------------|--------------------------|
-----------------------------------|--------------------------|
-----------------------------------|--------------------------|
-----------------------------------|--------------------------|
--3-2-2--2--2--2--2-2--2--2--2--2--|--3-4-2--2-2--2--2--------|
--1-0-0--0--0--0--0-0--0--0--0--0--|--1-2-0--0-0--0--0--------|

(OVERDUB DURING ABOVE PART)

   S  S  S  S  S  S  S  S  S  S  S  S  
|--------------------------------------|
|--------------------------------------|
|--12-12-12-12-12-12-12-12-12-12-12-12-|
|--------------------------------------|
|--10-10-10-10-10-10-10-10-10-10-10-10-|
|--------------------------------------|


   S  S  S  S  S  S  S  S  S  S  S  S  
--------------------------------------|
--------------------------------------|
--12-12-12-12-12-12-17-17-17-17-17-16-|
--------------------------------------|
--10-10-10-10-10-10-15-15-15-15-15-14-|
--------------------------------------|


   S  S  S  S  S  S  S  S  S  S  S  S  
--------------------------------------|
--------------------------------------|
--16-16-16-16-16-16-16-16-16-16-16-16-|
--------------------------------------|
--14-14-14-14-14-14-14-14-14-14-14-14-|
--------------------------------------|


   S  S  S  S  S  S  S  S  S  S  S  S  
--------------------------------------|
--------------------------------------|
--16-16-16-16-16-16-16-16-16-16-16-16-|
--------------------------------------|
--14-14-14-14-14-14-14-14-14-14-14-14-|
--------------------------------------|


   S  S  S  S  S  S  S  S  S  S  S  S  
--------------------------------------|
--------------------------------------|
--12-12-12-12-12-12-12-12-12-12-12-12-|
--------------------------------------|
--10-10-10-10-10-10-10-10-10-10-10-10-|
--------------------------------------|


   S  S  S  S  S  S  S  S  S  S  S  S  
--------------------------------------|
--------------------------------------|
--12-12-12-12-12-12-17-17-17-17-17-16-|
--------------------------------------|
--10-10-10-10-10-10-15-15-15-15-15-14-|
--------------------------------------|


   S  S  S  S  S  S  S  S  S  S  S  S  
--------------------------------------|
--------------------------------------|
--16-16-16-16-16-16-16-16-16-16-16-16-|
--------------------------------------|
--14-14-14-14-14-14-14-14-14-14-14-14-|
--------------------------------------|


   S  S  S  S  S  S  S  S  S  E.                                  
-----------------------------------|
-----------------------------------|
--16-16-16-16-16-16-16-16-16-16\---|
-----------------------------------|
--14-14-14-14-14-14-14-14-14-14\---|
-----------------------------------|

(BACK TO LEFT GUITAR)


  E  S S S S E  S S S S    E  S S S S E  S S S S  
------------------------|------------------------|
--5--5-5-5-5-5--5-5-5-5-|--5--5-5-5-5-5--5-5-5-5-|
--4--4-4-4-4-4--4-4-4-4-|--4--4-4-4-4-4--4-4-4-4-|
--5--5-5-5-5-5--5-5-5-5-|--5--5-5-5-5-5--5-5-5-5-|
--3--3-3-3-3-3--3-3-3-3-|--3--3-3-3-3-3--3-3-3-3-|
------------------------|------------------------|


  E  S S S S E  S S S S    E  S S S S E  S S S S  
--0--0-0-0-0-0--0-0-0-0-|--0--0-0-0-0-0--0-0-0-0-|
--0--0-0-0-0-0--0-0-0-0-|--0--0-0-0-0-0--0-0-0-0-|
--0--0-0-0-0-0--0-0-0-0-|--0--0-0-0-0-0--0-0-0-0-|
--2--2-2-2-2-2--2-2-2-2-|--2--2-2-2-2-2--2-2-2-2-|
--2--2-2-2-2-2--2-2-2-2-|--2--2-2-2-2-2--2-2-2-2-|
--0--0-0-0-0-0--0-0-0-0-|--0--0-0-0-0-0--0-0-0-0-|


  E  S S S S E  S S S S    E  S S S S E  S S S S  
------------------------|------------------------|
--5--5-5-5-5-5--5-5-5-5-|--5--5-5-5-5-5--5-5-5-5-|
--4--4-4-4-4-4--4-4-4-4-|--4--4-4-4-4-4--4-4-4-4-|
--5--5-5-5-5-5--5-5-5-5-|--5--5-5-5-5-5--5-5-5-5-|
--3--3-3-3-3-3--3-3-3-3-|--3--3-3-3-3-3--3-3-3-3-|
------------------------|------------------------|


  E  S S S S E  S S S S    E  S S S S E  S S S S  
--0--0-0-0-0-0--0-0-0-0-|--0--0-0-0-0-0--0-0-0-0-|
--0--0-0-0-0-0--0-0-0-0-|--0--0-0-0-0-0--0-0-0-0-|
--0--0-0-0-0-0--0-0-0-0-|--0--0-0-0-0-0--0-0-0-0-|
--2--2-2-2-2-2--2-2-2-2-|--2--2-2-2-2-2--2-2-2-2-|
--2--2-2-2-2-2--2-2-2-2-|--2--2-2-2-2-2--2-2-2-2-|
--0--0-0-0-0-0--0-0-0-0-|--0--0-0-0-0-0--0-0-0-0-|


  E  S S S S E  S S S S    E  S S S S E  S S S S  
------------------------|------------------------|
--5--5-5-5-5-5--5-5-5-5-|--5--5-5-5-5-5--5-5-5-5-|
--4--4-4-4-4-4--4-4-4-4-|--4--4-4-4-4-4--4-4-4-4-|
--5--5-5-5-5-5--5-5-5-5-|--5--5-5-5-5-5--5-5-5-5-|
--3--3-3-3-3-3--3-3-3-3-|--3--3-3-3-3-3--3-3-3-3-|
------------------------|------------------------|


  E  S S S S E  S S S S    E  S S S S E  S S S S  
--0--0-0-0-0-0--0-0-0-0-|--0--0-0-0-0-0--0-0-0-0-|
--0--0-0-0-0-0--0-0-0-0-|--0--0-0-0-0-0--0-0-0-0-|
--0--0-0-0-0-0--0-0-0-0-|--0--0-0-0-0-0--0-0-0-0-|
--2--2-2-2-2-2--2-2-2-2-|--2--2-2-2-2-2--2-2-2-2-|
--2--2-2-2-2-2--2-2-2-2-|--2--2-2-2-2-2--2-2-2-2-|
--0--0-0-0-0-0--0-0-0-0-|--0--0-0-0-0-0--0-0-0-0-|


  E  S S S S E  S S S S    E  S S S S E  S S S S  
------------------------|------------------------|
--5--5-5-5-5-5--5-5-5-5-|--5--5-5-5-5-5--5-5-5-5-|
--4--4-4-4-4-4--4-4-4-4-|--4--4-4-4-4-4--4-4-4-4-|
--5--5-5-5-5-5--5-5-5-5-|--5--5-5-5-5-5--5-5-5-5-|
--3--3-3-3-3-3--3-3-3-3-|--3--3-3-3-3-3--3-3-3-3-|
------------------------|------------------------|


  E  S S S S E  S S S S    E  S S S S E  S S S S  
--0--0-0-0-0-0--0-0-0-0-|--0--0-0-0-0-0--0-0-0-0-|
--0--0-0-0-0-0--0-0-0-0-|--0--0-0-0-0-0--0-0-0-0-|
--0--0-0-0-0-0--0-0-0-0-|--0--0-0-0-0-0--0-0-0-0-|
--2--2-2-2-2-2--2-2-2-2-|--2--2-2-2-2-2--2-2-2-2-|
--2--2-2-2-2-2--2-2-2-2-|--2--2-2-2-2-2--2-2-2-2-|
--0--0-0-0-0-0--0-0-0-0-|--0--0-0-0-0-0--0-0-0-0-|


      PM PM PM PM                      PM PM PM PM           
  S S S  S  S  S  S S Q            S S S  S  S  S  S S Q     
---------------------------|----|---------------------------|
---------------------------|----|---------------------------|
---------------------------|----|---------------------------|
---------------------------|----|---------------------------|
--3-2-2--2--2--2--2--------|----|--3-2-2--2--2--2--2--------|
--1-0-0--0--0--0--0--------|----|--1-0-0--0--0--0--0--------|


            PM PM PM             PM PM PM PM                
  S E  Q    S  S  S  S  S    S S S  S  S  S  S S Q          
--------------------------|---------------------------|----|
--------------------------|---------------------------|----|
---------------2-----5p-4-|---------------------------|----|
------------2-----2-------|---------------------------|----|
--------------------------|--3-2-2--2--2--2--2--------|----|
--------------------------|--1-0-0--0--0--0--0--------|----|


      PM PM PM PM                       PM PM PM       
  S S S  S  S  S  S S Q       S E  Q    S  S  S  S  S  
---------------------------|--------------------------|
---------------------------|--------------------------|
---------------------------|---------------2-----5p-4-|
---------------------------|------------2-----2-------|
--3-2-2--2--2--2--2--------|--------------------------|
--1-0-0--0--0--0--0--------|--------------------------|


  S S S S S S  S S S S S S    S S S S S S  S  S  S  S  S  S  
---------------------------|--------------------------------|
---------------------------|--------------------------------|
--7-9-9-9-9-9-10-9-9-9-9-9-|--7-9-9-9-9-9-12-12-12-10-10-10-|
--7-9-9-9-9-9-10-9-9-9-9-9-|--7-9-9-9-9-9-12-12-12-10-10-10-|
--5-7-7-7-7-7--8-7-7-7-7-7-|--5-7-7-7-7-7-10-10-10--8--8--8-|
--5-7-7-7-7-7--8-7-7-7-7-7-|--5-7-7-7-7-7-10-10-10--8--8--8-|


  S S S S S S  S S S S S S    S S S S S S  S  S  S  S  S  S  
---------------------------|--------------------------------|
---------------------------|--------------------------------|
--7-9-9-9-9-9-10-9-9-9-9-9-|--7-9-9-9-9-9-12-12-12-10-10-10-|
--7-9-9-9-9-9-10-9-9-9-9-9-|--7-9-9-9-9-9-12-12-12-10-10-10-|
--5-7-7-7-7-7--8-7-7-7-7-7-|--5-7-7-7-7-7-10-10-10--8--8--8-|
--5-7-7-7-7-7--8-7-7-7-7-7-|--5-7-7-7-7-7-10-10-10--8--8--8-|


  S S S S S S  S S S S S S    S S S S S S  S  S  S  S  S  S  
---------------------------|--------------------------------|
---------------------------|--------------------------------|
--7-9-9-9-9-9-10-9-9-9-9-9-|--7-9-9-9-9-9-12-12-12-10-10-10-|
--7-9-9-9-9-9-10-9-9-9-9-9-|--7-9-9-9-9-9-12-12-12-10-10-10-|
--5-7-7-7-7-7--8-7-7-7-7-7-|--5-7-7-7-7-7-10-10-10--8--8--8-|
--5-7-7-7-7-7--8-7-7-7-7-7-|--5-7-7-7-7-7-10-10-10--8--8--8-|


  S S S S S S  S S S S S S    S S S S S S  S  S  S  S  S  S  
---------------------------|--------------------------------|
---------------------------|--------------------------------|
--7-9-9-9-9-9-10-9-9-9-9-9-|--7-9-9-9-9-9-12-12-12-10-10-10-|
--7-9-9-9-9-9-10-9-9-9-9-9-|--7-9-9-9-9-9-12-12-12-10-10-10-|
--5-7-7-7-7-7--8-7-7-7-7-7-|--5-7-7-7-7-7-10-10-10--8--8--8-|
--5-7-7-7-7-7--8-7-7-7-7-7-|--5-7-7-7-7-7-10-10-10--8--8--8-|


  S S S S S S  S S S S S S    S S S S S S  S  S  S  S  S  S  
---------------------------|--------------------------------|
---------------------------|--------------------------------|
--7-9-9-9-9-9-10-9-9-9-9-9-|--7-9-9-9-9-9-12-12-12-10-10-10-|
--7-9-9-9-9-9-10-9-9-9-9-9-|--7-9-9-9-9-9-12-12-12-10-10-10-|
--5-7-7-7-7-7--8-7-7-7-7-7-|--5-7-7-7-7-7-10-10-10--8--8--8-|
--5-7-7-7-7-7--8-7-7-7-7-7-|--5-7-7-7-7-7-10-10-10--8--8--8-|


  S S S S S S  S S S S S S    S S S S S S  S  S  S  S  S  S  
---------------------------|--------------------------------|
---------------------------|--------------------------------|
--7-9-9-9-9-9-10-9-9-9-9-9-|--7-9-9-9-9-9-12-12-12-10-10-10-|
--7-9-9-9-9-9-10-9-9-9-9-9-|--7-9-9-9-9-9-12-12-12-10-10-10-|
--5-7-7-7-7-7--8-7-7-7-7-7-|--5-7-7-7-7-7-10-10-10--8--8--8-|
--5-7-7-7-7-7--8-7-7-7-7-7-|--5-7-7-7-7-7-10-10-10--8--8--8-|


  S S S S S S  S S S S S S    S S S S S S  S  S  S  S  S  S  
---------------------------|--------------------------------|
---------------------------|--------------------------------|
--7-9-9-9-9-9-10-9-9-9-9-9-|--7-9-9-9-9-9-12-12-12-10-10-10-|
--7-9-9-9-9-9-10-9-9-9-9-9-|--7-9-9-9-9-9-12-12-12-10-10-10-|
--5-7-7-7-7-7--8-7-7-7-7-7-|--5-7-7-7-7-7-10-10-10--8--8--8-|
--5-7-7-7-7-7--8-7-7-7-7-7-|--5-7-7-7-7-7-10-10-10--8--8--8-|


  S S S S S S  S S S S S S    S S S S S S  S  S  S  S  S  S  
---------------------------|--------------------------------|
---------------------------|--------------------------------|
--7-9-9-9-9-9-10-9-9-9-9-9-|--7-9-9-9-9-9-12-12-12-10-10-10-|
--7-9-9-9-9-9-10-9-9-9-9-9-|--7-9-9-9-9-9-12-12-12-10-10-10-|
--5-7-7-7-7-7--8-7-7-7-7-7-|--5-7-7-7-7-7-10-10-10--8--8--8-|
--5-7-7-7-7-7--8-7-7-7-7-7-|--5-7-7-7-7-7-10-10-10--8--8--8-|


      PM PM PM PM            
  S S S  S  S  S  S S Q      
---------------------------||
---------------------------||
---------------------------||
---------------------------||
--3-2-2--2--2--2--2--------||
--1-0-0--0--0--0--0--------||



RIGHT GUITAR:

  E  S S S S E  S S S S     E   S  S  S  S  E   S  S  S  S  
------------------------|----------------------------------|
--5--5-5-5-5-5--5-5-5-5-|----------------------------------|
--4--4-4-4-4-4--4-4-4-4-|--19--19-19-19-19-17--17-17-17-17-|
--5--5-5-5-5-5--5-5-5-5-|----------------------------------|
--3--3-3-3-3-3--3-3-3-3-|--17--17-17-17-17-15--15-15-15-15-|
------------------------|----------------------------------|


  E  S S S S E  S S S S     S  S  S  S  S  S  S  S  S  S  S  S  
--0--0-0-0-0-0--0-0-0-0-|--------------------------------------|
--0--0-0-0-0-0--0-0-0-0-|--------------------------------------|
--0--0-0-0-0-0--0-0-0-0-|--16-16-16-16-16-16-14-14-14-14-14-14-|
--2--2-2-2-2-2--2-2-2-2-|--------------------------------------|
--2--2-2-2-2-2--2-2-2-2-|--14-14-14-14-14-14-12-12-12-12-12-12-|
--0--0-0-0-0-0--0-0-0-0-|--------------------------------------|


   S  S  S  S  S  S  S  S  S  S  S  S  
--------------------------------------|
--------------------------------------|
--12-12-12-12-12-12-12-12-12-12-12-12-|
--------------------------------------|
--10-10-10-10-10-10-10-10-10-10-10-10-|
--------------------------------------|


   S  S  S  S  S  S  S  S  S  S  S  S    E  S S S S E  S S S S  
--------------------------------------|--0--0-0-0-0-0--0-0-0-0-|
--------------------------------------|--0--0-0-0-0-0--0-0-0-0-|
--19-19-19-19-19-19-17-17-17-17-17-17-|--0--0-0-0-0-0--0-0-0-0-|
--------------------------------------|--2--2-2-2-2-2--2-2-2-2-|
--17-17-17-17-17-17-15-15-15-15-15-15-|--2--2-2-2-2-2--2-2-2-2-|
--------------------------------------|--0--0-0-0-0-0--0-0-0-0-|


   S  S  S  S  S  S  S  S  S  S  S  S  
--------------------------------------|
--------------------------------------|
--16-16-16-16-16-16-14-14-14-14-14-14-|
--------------------------------------|
--14-14-14-14-14-14-12-12-12-12-12-12-|
--------------------------------------|


   S  S  S  S  S  S  S  S  S  S  S  S  
--------------------------------------|
--------------------------------------|
--12-12-12-12-12-12-12-12-12-12-12-12-|
--------------------------------------|
--10-10-10-10-10-10-10-10-10-10-10-10-|
--------------------------------------|


   S  S  S  S  S  S  S  S  S  S  S  S    E  S S S S E  S S S S  
--------------------------------------|--0--0-0-0-0-0--0-0-0-0-|
--------------------------------------|--0--0-0-0-0-0--0-0-0-0-|
--19-19-19-19-19-19-17-17-17-17-17-17-|--0--0-0-0-0-0--0-0-0-0-|
--------------------------------------|--2--2-2-2-2-2--2-2-2-2-|
--17-17-17-17-17-17-15-15-15-15-15-15-|--2--2-2-2-2-2--2-2-2-2-|
--------------------------------------|--0--0-0-0-0-0--0-0-0-0-|


   S  S  S  S  S  S  S  S  S  S  S  S  
--------------------------------------|
--------------------------------------|
--16-16-16-16-16-16-14-14-14-14-14-14-|
--------------------------------------|
--14-14-14-14-14-14-12-12-12-12-12-12-|
--------------------------------------|


   S  S  S  S  S  S  S  S  S  S  S  S  
--------------------------------------|
--------------------------------------|
--12-12-12-12-12-12-12-12-12-12-12-12-|
--------------------------------------|
--10-10-10-10-10-10-10-10-10-10-10-10-|
--------------------------------------|


   S  S  S  S  S  S  S  S  S  S  S  S  
--------------------------------------|
--------------------------------------|
--19-19-19-19-19-19-17-17-17-17-17-17-|
--------------------------------------|
--17-17-17-17-17-17-15-15-15-15-15-15-|
--------------------------------------|


   S  S  S  S  S  S  S  S  S  S  S  S  
--------------------------------------|
--17-17-17-17-17-17-17-17-17-17-17-17-|
--------------------------------------|
--14-14-14-14-14-14-14-14-14-14-14-14-|
--------------------------------------|
--------------------------------------|


   S  S  S  S  S  S  S  S  S  S  S  S  
--------------------------------------|
--17-17-17-17-17-17-17-17-17-17-17-17-|
--------------------------------------|
--14-14-14-14-14-14-14-14-14-14-14-14-|
--------------------------------------|
--------------------------------------|


    PM PM PM PM PM PM PM PM PM PM PM PM PM  
  S S  S  S  S  S  T  T  S  S  S  S  T  T   
-------------------------------------------|
-------------------------------------------|
-------------------------------------------|
-------------------------------------------|
--3-2--2--2--2--2--2--2--2--2--2--2--2--2--|
--1-0--0--0--0--0--0--0--0--0--0--0--0--0--|


      PM   PM PM               PM PM PM PM PM   PM PM PM PM PM  
  S S S  S S  S  E   Q       S S  S  S  S  S  S S  S  S  S  S   
--------------------------|------------------------------------|
--------------------------|------------------------------------|
--------------------------|------------------------------------|
--------------------------|------------------------------------|
--3-2-2--2-2--2-----------|--3-2--2--2--2--2--2-2--2--2--2--2--|
--1-0-0--0-0--0--1b--L----|--1-0--0--0--0--0--0-0--0--0--0--0--|


      PM   PM PM                  PM PM PM PM PM   PM PM PM PM PM  
  S S S  S S  S  S S S S S S    S S  S  S  S  S  S S  S  S  S  S   
-----------------------------|------------------------------------|
-----------------------------|------------------------------------|
-----------------5-5-5-5-5-4-|------------------------------------|
-----------------------------|------------------------------------|
--3-2-2--2-2--2--3-3-3-3-3-2-|--3-2--2--2--2--2--2-2--2--2--2--2--|
--1-0-0--0-0--0--------------|--1-0--0--0--0--0--0-0--0--0--0--0--|


      PM   PM PM                  PM PM PM PM PM   PM PM PM PM PM  
  S S S  S S  S  S S S S S S    S S  S  S  S  S  S S  S  S  S  S   
-----------------------------|------------------------------------|
-----------------------------|------------------------------------|
-----------------5-5-5-5-5-4-|------------------------------------|
-----------------------------|------------------------------------|
--3-2-2--2-2--2--3-3-3-3-3-2-|--3-2--2--2--2--2--2-2--2--2--2--2--|
--1-0-0--0-0--0--------------|--1-0--0--0--0--0--0-0--0--0--0--0--|


      PM   PM PM               PM PM PM PM PM   PM PM PM PM PM  
  S S S  S S  S  S Q    S    S S  S  S  S  S  S S  S  S  S  S   
--------------------------|------------------------------------|
--------------------------|------------------------------------|
--------------------------|------------------------------------|
--------------------------|------------------------------------|
--3-2-2--2-2--2--2--------|--3-2--2--2--2--2--2-2--2--2--2--2--|
--1-0-0--0-0--0--0--------|--1-0--0--0--0--0--0-0--0--0--0--0--|


      PM   PM PM                  PM PM PM PM PM   PM PM PM PM PM  
  S S S  S S  S  S S S S S S    S S  S  S  S  S  S S  S  S  S  S   
-----------------------------|------------------------------------|
-----------------------------|------------------------------------|
-----------------------------|------------------------------------|
-----------------3-3-3-3-3-2-|------------------------------------|
--3-2-2--2-2--2--3-3-3-3-3-2-|--3-2--2--2--2--2--2-2--2--2--2--2--|
--1-0-0--0-0--0--------------|--1-0--0--0--0--0--0-0--0--0--0--0--|


      PM   PM PM                  PM PM PM PM PM   PM PM PM PM PM  
  S S S  S S  S  S S S S S S    S S  S  S  S  S  S S  S  S  S  S   
-----------------------------|------------------------------------|
-----------------------------|------------------------------------|
-----------------------------|------------------------------------|
-----------------3-3-3-3-3-2-|------------------------------------|
--3-2-2--2-2--2--3-3-3-3-3-2-|--3-2--2--2--2--2--2-2--2--2--2--2--|
--1-0-0--0-0--0--------------|--1-0--0--0--0--0--0-0--0--0--0--0--|


      PM   PM PM                  PM PM PM PM PM   PM PM PM PM PM  
  S S S  S S  S  S S S S S S    S S  S  S  S  S  S S  S  S  S  S   
-----------------------------|------------------------------------|
-----------------------------|------------------------------------|
-----------------------------|------------------------------------|
-----------------3-3-3-3-3-2-|------------------------------------|
--3-2-2--2-2--2--3-3-3-3-3-2-|--3-2--2--2--2--2--2-2--2--2--2--2--|
--1-0-0--0-0--0--------------|--1-0--0--0--0--0--0-0--0--0--0--0--|


      PM   PM PM                                    
  S S S  S S  S  S Q    S    E  S S S S E  S S S S  
--------------------------|------------------------|
--------------------------|--5--5-5-5-5-5--5-5-5-5-|
--------------------------|--4--4-4-4-4-4--4-4-4-4-|
--------------------------|--5--5-5-5-5-5--5-5-5-5-|
--3-4-2--2-2--2--2--------|--3--3-3-3-3-3--3-3-3-3-|
--1-2-0--0-0--0--0--------|------------------------|


   E   S  S  S  S  E   S  S  S  S    E  S S S S E  S S S S  
----------------------------------|--0--0-0-0-0-0--0-0-0-0-|
----------------------------------|--0--0-0-0-0-0--0-0-0-0-|
--19--19-19-19-19-17--17-17-17-17-|--0--0-0-0-0-0--0-0-0-0-|
----------------------------------|--2--2-2-2-2-2--2-2-2-2-|
--17--17-17-17-17-15--15-15-15-15-|--2--2-2-2-2-2--2-2-2-2-|
----------------------------------|--0--0-0-0-0-0--0-0-0-0-|


   S  S  S  S  S  S  S  S  S  S  S  S  
--------------------------------------|
--------------------------------------|
--16-16-16-16-16-16-14-14-14-14-14-14-|
--------------------------------------|
--14-14-14-14-14-14-12-12-12-12-12-12-|
--------------------------------------|


   S  S  S  S  S  S  S  S  S  S  S  S  
--------------------------------------|
--------------------------------------|
--12-12-12-12-12-12-12-12-12-12-12-12-|
--------------------------------------|
--10-10-10-10-10-10-10-10-10-10-10-10-|
--------------------------------------|


   S  S  S  S  S  S  S  S  S  S  S  S    E  S S S S E  S S S S  
--------------------------------------|--0--0-0-0-0-0--0-0-0-0-|
--------------------------------------|--0--0-0-0-0-0--0-0-0-0-|
--19-19-19-19-19-19-17-17-17-17-17-17-|--0--0-0-0-0-0--0-0-0-0-|
--------------------------------------|--2--2-2-2-2-2--2-2-2-2-|
--17-17-17-17-17-17-15-15-15-15-15-15-|--2--2-2-2-2-2--2-2-2-2-|
--------------------------------------|--0--0-0-0-0-0--0-0-0-0-|


   S  S  S  S  S  S  S  S  S  S  S  S  
--------------------------------------|
--------------------------------------|
--16-16-16-16-16-16-14-14-14-14-14-14-|
--------------------------------------|
--14-14-14-14-14-14-12-12-12-12-12-12-|
--------------------------------------|


   S  S  S  S  S  S  S  S  S  S  S  S  
--------------------------------------|
--------------------------------------|
--12-12-12-12-12-12-12-12-12-12-12-12-|
--------------------------------------|
--10-10-10-10-10-10-10-10-10-10-10-10-|
--------------------------------------|


   S  S  S  S  S  S  S  S  S  S  S  S    E  S S S S E  S S S S  
--------------------------------------|--0--0-0-0-0-0--0-0-0-0-|
--------------------------------------|--0--0-0-0-0-0--0-0-0-0-|
--19-19-19-19-19-19-17-17-17-17-17-17-|--0--0-0-0-0-0--0-0-0-0-|
--------------------------------------|--2--2-2-2-2-2--2-2-2-2-|
--17-17-17-17-17-17-15-15-15-15-15-15-|--2--2-2-2-2-2--2-2-2-2-|
--------------------------------------|--0--0-0-0-0-0--0-0-0-0-|


   S  S  S  S  S  S  S  S  S  S  S  S  
--------------------------------------|
--------------------------------------|
--16-16-16-16-16-16-14-14-14-14-14-14-|
--------------------------------------|
--14-14-14-14-14-14-12-12-12-12-12-12-|
--------------------------------------|


   S  S  S  S  S  S  S  S  S  S  S  S  
--------------------------------------|
--------------------------------------|
--12-12-12-12-12-12-12-12-12-12-12-12-|
--------------------------------------|
--10-10-10-10-10-10-10-10-10-10-10-10-|
--------------------------------------|


   S  S  S  S  S  S  S  S  S  S  S  S  
--------------------------------------|
--------------------------------------|
--19-19-19-19-19-19-17-17-17-17-17-17-|
--------------------------------------|
--17-17-17-17-17-17-15-15-15-15-15-15-|
--------------------------------------|


    PM PM    PM PM    PM PM         
  S S  S   S S  S   S S  S   E  S   
-----------------------------------|
-----------------------------------|
--9-------11-------12-------14--L\-|
-----------------------------------|
--7--------9-------10-------12--L\-|
----0--0-----0--0-----0--0---------|


    PM PM    PM PM    PM PM             PM PM PM PM PM           
  S S  S   S S  S   S S  S   E  S     S S  S  S  S  S  S S Q     
-----------------------------------|----------------------------|
-----------------------------------|----------------------------|
--9-------11-------12-------14--L\-|----------------------------|
-----------------------------------|----------------------------|
--7--------9-------10-------12--L\-|--3-2--2--2--2--2--2--------|
----0--0-----0--0-----0--0---------|--1-0--0--0--0--0--0--------|


            PM PM PM PM PM   PM PM PM PM PM  
          S S  S  S  S  S  S S  S  S  S  S   
-------|------------------------------------|
-------|------------------------------------|
-------|------------------------------------|
-------|------------------------------------|
-------|--3-2--2--2--2--2--2-2--2--2--2--2--|
-------|--1-0--0--0--0--0--0-0--0--0--0--0--|


      PM   PM PM                  PM PM PM PM PM                   
  S S S  S S  S  S S S S S S    S S  S  S  S  S  S S Q             
-----------------------------|----------------------------|-------|
-----------------------------|----------------------------|-------|
-----------------------------|----------------------------|-------|
-----------------3-3-3-3-3-2-|----------------------------|-------|
--3-4-2--2-2--2--3-3-3-3-3-2-|--3-2--2--2--2--2--2--------|-------|
--1-2-0--0-0--0--------------|--1-0--0--0--0--0--0--------|-------|


    PM PM PM PM PM   PM PM PM PM PM        PM   PM PM              
  S S  S  S  S  S  S S  S  S  S  S     S S S  S S  S  S S S S S S  
------------------------------------|-----------------------------|
------------------------------------|-----------------------------|
------------------------------------|-----------------------------|
------------------------------------|-----------------3-3-3-3-3-2-|
--3-2--2--2--2--2--2-2--2--2--2--2--|--3-4-2--2-2--2--3-3-3-3-3-2-|
--1-0--0--0--0--0--0-0--0--0--0--0--|--1-2-0--0-0--0--------------|


  S S S S S S  S S S S S S    S S S S S S  S  S  S  S  S  S  
---------------------------|--------------------------------|
---------------------------|--------------------------------|
--7-9-9-9-9-9-10-9-9-9-9-9-|--7-9-9-9-9-9-12-12-12-10-10-10-|
--7-9-9-9-9-9-10-9-9-9-9-9-|--7-9-9-9-9-9-12-12-12-10-10-10-|
--5-7-7-7-7-7--8-7-7-7-7-7-|--5-7-7-7-7-7-10-10-10--8--8--8-|
--5-7-7-7-7-7--8-7-7-7-7-7-|--5-7-7-7-7-7-10-10-10--8--8--8-|


  S S S S S S  S S S S S S    S S S S S S  S  S  S  S  S  S  
---------------------------|--------------------------------|
---------------------------|--------------------------------|
--7-9-9-9-9-9-10-9-9-9-9-9-|--7-9-9-9-9-9-12-12-12-10-10-10-|
--7-9-9-9-9-9-10-9-9-9-9-9-|--7-9-9-9-9-9-12-12-12-10-10-10-|
--5-7-7-7-7-7--8-7-7-7-7-7-|--5-7-7-7-7-7-10-10-10--8--8--8-|
--5-7-7-7-7-7--8-7-7-7-7-7-|--5-7-7-7-7-7-10-10-10--8--8--8-|


  S S S S S S  S S S S S S    S S S S S S  S  S  S  S  S  S  
---------------------------|--------------------------------|
---------------------------|--------------------------------|
--7-9-9-9-9-9-10-9-9-9-9-9-|--7-9-9-9-9-9-12-12-12-10-10-10-|
--7-9-9-9-9-9-10-9-9-9-9-9-|--7-9-9-9-9-9-12-12-12-10-10-10-|
--5-7-7-7-7-7--8-7-7-7-7-7-|--5-7-7-7-7-7-10-10-10--8--8--8-|
--5-7-7-7-7-7--8-7-7-7-7-7-|--5-7-7-7-7-7-10-10-10--8--8--8-|


  S S S S S S  S S S S S S    S S S S S S  S  S  S  S  S  S  
---------------------------|--------------------------------|
---------------------------|--------------------------------|
--7-9-9-9-9-9-10-9-9-9-9-9-|--7-9-9-9-9-9-12-12-12-10-10-10-|
--7-9-9-9-9-9-10-9-9-9-9-9-|--7-9-9-9-9-9-12-12-12-10-10-10-|
--5-7-7-7-7-7--8-7-7-7-7-7-|--5-7-7-7-7-7-10-10-10--8--8--8-|
--5-7-7-7-7-7--8-7-7-7-7-7-|--5-7-7-7-7-7-10-10-10--8--8--8-|


   S  S  S  S  S  S  S  S  S  S  S  S  
--------------------------------------|
--------------------------------------|
--12-12-12-12-12-12-12-12-12-12-12-12-|
--------------------------------------|
--10-10-10-10-10-10-10-10-10-10-10-10-|
--------------------------------------|


   S  S  S  S  S  S  S  S  S  S  S  S    S S S S S S S S S S S S  
--------------------------------------|--------------------------|
--------------------------------------|--------------------------|
--19-19-19-19-19-19-17-17-17-17-17-17-|--9-9-9-9-9-9-9-9-9-9-9-9-|
--------------------------------------|--9-9-9-9-9-9-9-9-9-9-9-9-|
--17-17-17-17-17-17-15-15-15-15-15-15-|--7-7-7-7-7-7-7-7-7-7-7-7-|
--------------------------------------|--7-7-7-7-7-7-7-7-7-7-7-7-|


   S  S  S  S  S  S  S  S  S  S  S  S  
--------------------------------------|
--------------------------------------|
--16-16-16-16-16-16-14-14-14-14-14-14-|
--------------------------------------|
--14-14-14-14-14-14-12-12-12-12-12-12-|
--------------------------------------|


   S  S  S  S  S  S  S  S  S  S  S  S  
--------------------------------------|
--------------------------------------|
--12-12-12-12-12-12-12-12-12-12-12-12-|
--------------------------------------|
--10-10-10-10-10-10-10-10-10-10-10-10-|
--------------------------------------|


   S  S  S  S  S  S  S  S  S  S  S  S  
--------------------------------------|
--------------------------------------|
--19-19-19-19-19-19-17-17-17-17-17-17-|
--------------------------------------|
--17-17-17-17-17-17-15-15-15-15-15-15-|
--------------------------------------|


   S  S  S  S  S  S  S  S  S  S  S  S  
--------------------------------------|
--17-17-17-17-17-17-17-17-17-17-17-17-|
--------------------------------------|
--14-14-14-14-14-14-14-14-14-14-14-14-|
--------------------------------------|
--------------------------------------|


                                             PM PM PM PM            
   S  S  S  S  S  S  S  S  S  S  S  S    S S S  S  S  S  S S Q      
--------------------------------------|---------------------------||
--17-17-17-17-17-17-17-17-17-17-17-17-|---------------------------||
--------------------------------------|---------------------------||
--14-14-14-14-14-14-14-14-14-14-14-14-|---------------------------||
--------------------------------------|--3-2-2--2--2--2--2--------||
--------------------------------------|--1-0-0--0--0--0--0--------||




Duration Legend
---------------
W - whole
H - half
Q - quarter
E - 8th
S - 16th
T - 32nd
X - 64th
. - note dotted
|-n-|  - n-tuplets


Tablature Legend
----------------
L - tied note
x - dead note
g - grace note
(n) - ghost note
> - accentuded note
NH - natural harmonic
AH - artificial harmonic
TH - tapped harmonic
SH - semi harmonic
PH - pitch harmonic
h - hammer on
p - pull off
b - bend
br - bendRelease
pb - preBend
pbr - preBendRelease
brb - bendReleaseBend
\n/ - tremolo bar dip
\n - tremolo bar dive
-/n - tremolo bar Release up
/n\ - tremolo bar inverted dip
/n - tremolo bar return
-\n - tremolo bar Release down
S - shift slide
s - legato slide
/ -  slide into from below or out of upwards
\ -  slide into from above or out of downwards
~ - vibrato
W - wide vibrato
tr - trill
TP - tremolo picking
T - tapping
S - slap
P - pop
< - fade in
^ - brush up
v - brush down





Comments


Popular Verse tabs & chords
Earth And Stone Tabs
Hard To Breath Tabs
Hard To Breathe Tabs
Hollywood Tabs
Lost Tabs
Old Guards, New Methods Tabs
Suffering To Live Scared Of Love Tabs
The New Fury Intro Tabs
Waiting On Revolution Tabs
Weather To A Stone Tabs


Song lyrics



↑ Back to top | Tablatures and chords are parodies/interpretations of the original songs. You may use it for private study, scholarship, research or language learning purposes only
© 2014 AZChords.com Contact us | Privacy policy | DMCA | Add/correct tabs | Request tabs | Top 50 tabs