» » »

Old Guards, New Methods Tabs (ver.1)

Artists:  A B C D E F G H I J K L M N O P Q R S T U V W X Y Z # 

Old Guards, New Methods Tabs (ver.1)

Verse
Rating:
0/5 (0 votes)

Hard to play? Try these video lessons and learn fast.
                -------------------------------------------------------------------------------
-------------------------------------------------------------------------------
Band: Verse

Tuning: 1/2 Step Down (D# G# C# F# A# D#)

Verse (lol)

------------------------------|------------------------------|
------------------------------|------------------------------|
------------------------------|------------------------------|
--5-5--5-5-5--5-9-9--9-9-9--9-|--4-4--4-4-4--4-4-4--4-4-4--4-|
--3-3--3-3-3--3-7-7--7-7-7--7-|--2-2--2-2-2--2-2-2--2-2-2--2-|
------------------------------|------------------------------|
                                                       
------------------------------|--------------------------------|
------------------------------|--------------------------------|
------------------------------|----------------4-------5-------|
--5-5--5-5-5--5-9-9--9-9-9--9-|--4-4--4-4-4--4-4-4--4--5--4--4-|
--3-3--3-3-3--3-7-7--7-7-7--7-|--2-2--2-2-2--2-2-2--2--3--2--2-|
------------------------------|--------------------------------|
PM                                               .  .

------------------------------|------------------------------|
------------------------------|------------------------------|
------------------------------|------------------------------|
--5-5--5-5-5--5-9-9--9-9-9--9-|--4-4--4-4-4--4-4-4--4-4-4--4-|
--3-3--3-3-3--3-7-7--7-7-7--7-|--2-2--2-2-2--2-2-2--2-2-2--2-|
------------------------------|------------------------------|
                                                   
     
------------------------------|----------------------------------|
------------------------------|----------------------------------|
------------------------------|----------------------4-----------|
--5-5--5-5-5--5-9-9--9-9-9--9-|--4-4--4-4-4--4-4--4--4-4--4--4---|
--3-3--3-3-3--3-7-7--7-7-7--7-|--2-2--2-2-2--2-2--2--2-2--2--2---|
------------------------------|----------------------------------|
PM                                             .  .    .  .
 
Chorus
  
-------------------------------|------------------------------|
-------------------------------|------------------------------|
--7-7--7-7-7--7-5-5--5-5-7-5-4~|----4-4--4-4--4-4-4--4-4-4--4-|
--7-7--7-7-7--7-5-5--5-5-7-5-4~|----4-4--4-4--4-4-4--4-4-4--4-|
--5-5--5-5-5--5-3-3--3-3-5-3-2~|----2-2--2-2--2-2-2--2-2-2--2-|
-------------------------------|------------------------------|
 
-------------------------------|------------------------------|
-------------------------------|------------------------------|
----------------5-5--5-5-7-5-4~|----4-4--4-4--4-4-4--4-4-4--4-|
--5-5--5-5-5--5-5-5--5-5-7-5-4~|----4-4--4-4--4-4-4--4-4-4--4-|
--5-5--5-5-5--5-3-3--3-3-5-3-2~|----2-2--2-2--2-2-2--2-2-2--2-|
--3-3--3-3-3--3----------------|------------------------------|

-------------------------------|------------------------------|
-------------------------------|------------------------------|
--7-7--7-7-7--7-5-5--5-5-7-5-4~|----4-4--4-4--4-4-4--4-4-4--4-|
--7-7--7-7-7--7-5-5--5-5-7-5-4~|----4-4--4-4--4-4-4--4-4-4--4-|
--5-5--5-5-5--5-3-3--3-3-5-3-2~|----2-2--2-2--2-2-2--2-2-2--2-|
-------------------------------|------------------------------|

-------------------------------|-------------------------------|
-------------------------------|-------------------------------|
----------------5-5--5-5-7-5-4~|----4-4--4-4--4-4-4--4---------|
--5-5--5-5-5--5-5-5--5-5-7-5-4~|----4-4--4-4--4-4-4--4-4--4--4-|
--5-5--5-5-5--5-3-3--3-3-5-3-2~|----2-2--2-2--2-2-2--2-2--2--2-|
--3-3--3-3-3--3----------------|-------------------------------|
PM                                                     .  .  .

Verse x1
Chorus x1

Bridge x4

------------------------------|------------------------------|
------------------------------|------------------------------|
------------------------------|------------------------------|  
--5-5--5-5-5--5-5-5--5-5-5--5-|--2-2--2-2-2--2-2-2--2-2-2--2-|
--5-5--5-5-5--5-5-5--5-5-5--5-|--2-2--2-2-2--2-2-2--2-2-2--2-|
--3-3--3-3-3--3-3-3--3-3-3--3-|--0-0--0-0-0--0-0-0--0-0-0--0-|

Ending (No war) x5

----------------------------------|----------------------------------|
----------------------------------|----------------------------------|
--4-4-4-4-4-4-4-4-4-4-4-4-4-9-9-9-|--9-5-5-5-5-5-5-5-5-5-5-5-5-5-5-5-|
--x-x-x-x-x-x-x-x-x-x-x-x-x-x-x-x-|--x-x-x-x-x-x-x-x-x-x-x-x-x-x-x-x-|
--2-2-2-2-2-2-2-2-2-2-2-2-2-7-7-7-|--7-3-3-3-3-3-3-3-3-3-3-3-3-3-3-3-|
----------------------------------|----------------------------------|

----------------------------------|----------------------------------|
----------------------------------|----------------------------------|
--7-7-7-7-7-7-7-7-5-5-5-5-5s7-7s5-|--5s4-4-4-4-4-4-4-4-4-4-4-4-4-4-4-|
--x-x-x-x-x-x-x-x-x-x-x-x-x-x-x-x-|--x-x-x-x-x-x-x-x-x-x-x-x-x-x-x-x-|
--5-5-5-5-5-5-5-5-3-3-3-3-3s5-5s3-|--3s2-2-2-2-2-2-2-2-2-2-2-2-2-2-2-|
----------------------------------|----------------------------------|

End on
------
------
-5~---
-5~---
-3~---
------

Send me any corrections, suggestions and check my tabs.
            
Hard to play? Try these video lessons and learn fast. | Correct




comments powered by Disqus
↑ Back to top | Tablatures and chords are parodies/interpretations of the original songs. You may use it for private study, scholarship, research or language learning purposes only