» » »

Lost Tabs (ver.1)

Artists:  A B C D E F G H I J K L M N O P Q R S T U V W X Y Z # 

Lost Tabs (ver.1)

Verse
Rating:
0/5 (0 votes)

Tabs too difficult? Try these video lessons and learn fast.
                --------------------------------------------------------------------------------------------------
                                            Verse | Lost
--------------------------------------------------------------------------------------------------
Band            : Verse
Song            : Lost
Album           : From Anger ang Rage

e|-------------------------------------------------------------------------------------------------|
B|-------------------------------------------------------------------------------------------------|
G|-------------------------------------------------------------------------------------------------|
D|-7-xx-7-xx-7-xx-7-xx-7-7-3-xx-3-xx-3-xx-3-xx-3-3-4-xx-4-xx-4-xx-4-xx-4-4-5-xx-5-xx-5-xx-5-xx-5-5-|
A|-5-xx-5-xx-5-xx-5-xx-5-5-1-xx-1-xx-1-xx-1-xx-1-1-2-xx-2-xx-2-xx-2-xx-2-2-3-xx-3-xx-3-xx-3-xx-3-3-|
E|-------------------------------------------------------------------------------------------------|

e|-------------------------------------------------------------------------------------------------|
B|-------------------------------------------------------------------------------------------------|
G|-------------------------------------------------------------------------------------------------|
D|-7-xx-7-xx-7-xx-7-xx-7-7-3-xx-3-xx-3-xx-3-xx-3-3-4-xx-4-xx-4-xx-4-xx-4-4-5-xx-5-xx-5-xx-5-xx-5-5-|
A|-5-xx-5-xx-5-xx-5-xx-5-5-1-xx-1-xx-1-xx-1-xx-1-1-2-xx-2-xx-2-xx-2-xx-2-2-3-xx-3-xx-3-xx-3-xx-3-3-|
E|-------------------------------------------------------------------------------------------------|

e|-------------------------------------------------------------------------------------------------|
B|-------------------------------------------------------------------------------------------------|
G|-------------------------------------------------------------------------------------------------|
D|-7-xx-7-xx-7-xx-7-xx-7-7-3-xx-3-xx-3-xx-3-xx-3-3-4-xx-4-xx-4-xx-4-xx-4-4-5-xx-5-xx-5-xx-5-xx-5-5-|
A|-5-xx-5-xx-5-xx-5-xx-5-5-1-xx-1-xx-1-xx-1-xx-1-1-2-xx-2-xx-2-xx-2-xx-2-2-3-xx-3-xx-3-xx-3-xx-3-3-|
E|-------------------------------------------------------------------------------------------------|

e|----------------------------|----------------------------|
B|----------------------------|----------------------------|
G|----------------------------|----------------------------|
D|----------------------------|----------------------------|
A|-5-2----5-2-22222222222222--|-5-2----5-2-22222222222222--|
E|-3-0----3-0-00000000000000--|-3-0----3-0-00000000000000--|

e|-------------------------------------------------------------------------------------------------|
B|-------------------------------------------------------------------------------------------------|
G|-------------------------------------------------------------------------------------------------|
D|-7-xx-7-xx-7-xx-7-xx-7-7-3-xx-3-xx-3-xx-3-xx-3-3-4-xx-4-xx-4-xx-4-xx-4-4-5-xx-5-xx-5-xx-5-xx-5-5-|
A|-5-xx-5-xx-5-xx-5-xx-5-5-1-xx-1-xx-1-xx-1-xx-1-1-2-xx-2-xx-2-xx-2-xx-2-2-3-xx-3-xx-3-xx-3-xx-3-3-|
E|-------------------------------------------------------------------------------------------------|

e|-------------------------------------------------------------------------------------------------|
B|-------------------------------------------------------------------------------------------------|
G|-------------------------------------------------------------------------------------------------|
D|-7-xx-7-xx-7-xx-7-xx-7-7-3-xx-3-xx-3-xx-3-xx-3-3-4-xx-4-xx-4-xx-4-xx-4-4-5-xx-5-xx-5-xx-5-xx-5-5-|
A|-5-xx-5-xx-5-xx-5-xx-5-5-1-xx-1-xx-1-xx-1-xx-1-1-2-xx-2-xx-2-xx-2-xx-2-2-3-xx-3-xx-3-xx-3-xx-3-3-|
E|-------------------------------------------------------------------------------------------------|

e|-------------------------------------------------------------------------------------------------|
B|-------------------------------------------------------------------------------------------------|
G|-------------------------------------------------------------------------------------------------|
D|-7-xx-7-xx-7-xx-7-xx-7-7-3-xx-3-xx-3-xx-3-xx-3-3-4-xx-4-xx-4-xx-4-xx-4-4-5-xx-5-xx-5-xx-5-xx-5-5-|
A|-5-xx-5-xx-5-xx-5-xx-5-5-1-xx-1-xx-1-xx-1-xx-1-1-2-xx-2-xx-2-xx-2-xx-2-2-3-xx-3-xx-3-xx-3-xx-3-3-|
E|-------------------------------------------------------------------------------------------------|



e|----------------------------|----------------------------|
B|----------------------------|----------------------------|
G|----------------------------|----------------------------|
D|----------------------------|----------------------------|
A|-5-2----5-2-22222222222222--|-5-2----5-2-22222222222222--|
E|-3-0----3-0-00000000000000--|-3-0----3-0-00000000000000--|

e|----------------------------|------------|
B|----------------------------|------------|
G|----------------------------|------------|
D|----------------------------|------------|
A|-5-2----5-2-22222222222222--|-5-2----5-2-|
E|-3-0----3-0-00000000000000--|-3-0----3-0-|
            
Tabs too difficult? Try these video lessons and learn fast.




comments powered by Disqus
↑ Back to top | Tablatures and chords are parodies/interpretations of the original songs. You may use it for private study, scholarship, research or language learning purposes only