» » »

Hard To Breathe Tabs (ver.1)

Artists:  A B C D E F G H I J K L M N O P Q R S T U V W X Y Z # 

Hard To Breathe Tabs (ver.1)

Verse
Rating:
0/5 (0 votes)

Hard to play? Try these video lessons and learn fast.
                ----------------------------------------------------------------------------------------
                                  Verse - Hard to Breathe
----------------------------------------------------------------------------------------
Band            : Verse
Song            : Hard to Breathe
Album           : From Anger ang Rage

e|-------------------------------------------------------------------------------------|
B|-------------------------------------------------------------------------------------|
G|-------------------------------------------------------------------------------------|
D|-2-2-2-2-2---5-5-5--5-5-5--5-5-7--5-4/52--2-2-2-2-9--7-7-7--7-7-7--7-7-7--7-7-7--5/7-|
A|-2-2-2-2-2---3-3-3--3-3-3--3-3-5--3-2/32--2-2-2-2-7--5-5-5--5-5-5--5-5-5--5-5-5--3/5-|
E|-0-0-0-0-0--------------------------------0-0-0-0------------------------------------|

e|-------------------------------------------------------------------------------------|
B|-------------------------------------------------------------------------------------|
G|-------------------------------------------------------------------------------------|
D|-2-2-2-2-2---5-5-5--5-5-5--5-5-7--5-4/52--2-2-2-2-9--7-7-7--7-7-7--7-7-7--7-7-7--5/7-|
A|-2-2-2-2-2---3-3-3--3-3-3--3-3-5--3-2/32--2-2-2-2-7--5-5-5--5-5-5--5-5-5--5-5-5--3/5-|
E|-0-0-0-0-0--------------------------------0-0-0-0------------------------------------|

e|-----------------------------------|-------------------------------------|
B|-----------------------------------|-------------------------------------|
G|-----------------------------------|-------------------------------------|
D|-9--------9-----9-----12---7-7-7-7-|-9--------9-----10------12---7-7-7-7-|
A|-7-xx-x-x-7-x-x-7-x-x-10-x-5-5-5-5-|-7-xx-x-x-7-x-x-8---x-x-10-x-5-5-5-5-|
E|---xx-x-x---x-x---x-x----x---------|---xx-x-x---x-x-----x-x----x---------|

e|-----------------------------------|-------------------------------------|
B|-----------------------------------|-------------------------------------|
G|-----------------------------------|-------------------------------------|
D|-9--------9-----9-----12---7-7-7-7-|-9--------9-----10------12---7-7-7-7-|
A|-7-xx-x-x-7-x-x-7-x-x-10-x-5-5-5-5-|-7-xx-x-x-7-x-x-8---x-x-10-x-5-5-5-5-|
E|---xx-x-x---x-x---x-x----x---------|---xx-x-x---x-x-----x-x----x---------|

e|---------------------------------|---------------------------|
B|---------------------------------|---------------------------|
G|-9---9/11--11/12----12\11---11\9-|-9/11---11/12---12/14---16-|
D|-9---9/11--11/12----12\11---11\9-|-9/11---11/12---12/14---14-|
A|-7---7/9----9/10----10\9-----9\7-|-7/9-----9/10---10/12---14-|
E|---------------------------------|---------------------------|

e|---------------------------------------------------------|
B|---------------------------------------------------------|
G|---------------------------------------------------------|
D|-9-9-9-9-9-9-9-9-9-9-9--12-12-12-12-12-12-12-12-12-12-12-|
A|-9-9-9-9-9-9-9-9-9-9-9--12-12-12-12-12-12-12-12-12-12-12-|
E|-7-7-7-7-7-7-7-7-7-7-7--10-10-10-10-10-10-10-10-10-10-10-|

e|------------------------------------------------------------------|
B|------------------------------------------------------------------|
G|------------------------------------------------------------------|
D|-11-11-11-11-11-11-11-11-11-11-11--16-16-16-16-16--14-14-14-14-14-|
A|-11-11-11-11-11-11-11-11-11-11-11--16-16-16-16-16--14-14-14-14-14-|
E|--9--9--9--9--9--9--9--9--9--9--9--14-14-14-14-14--12-12-12-12-12-|

e|---------------------------------------------------------|
B|---------------------------------------------------------|
G|---------------------------------------------------------|
D|-9-9-9-9-9-9-9-9-9-9-9--12-12-12-12-12-12-12-12-12-12-12-|
A|-9-9-9-9-9-9-9-9-9-9-9--12-12-12-12-12-12-12-12-12-12-12-|
E|-7-7-7-7-7-7-7-7-7-7-7--10-10-10-10-10-10-10-10-10-10-10-|

e|------------------------------------------------------------------|
B|------------------------------------------------------------------|
G|------------------------------------------------------------------|
D|-11-11-11-11-11-11-11-11-11-11-11--16-16-16-16-16--14-14-14-14-14-|
A|-11-11-11-11-11-11-11-11-11-11-11--16-16-16-16-16--14-14-14-14-14-|
E|--9--9--9--9--9--9--9--9--9--9--9--14-14-14-14-14--12-12-12-12-12-|

e|--------------------------|
B|--------------------------|
G|-9---9/11--11/12----12/14-| 
D|-9---9/11--11/12----12/14-|  
A|-7---7/9----9/10----10/12-|
E|--------------------------|

e|----------------------------------|----------------------------------|
B|----------------------------------|----------------------------------|
G|----------------------------------|----------------------------------|
D|-7--5--10--9--222-222-222-222-222-|-7--5--10--9--222-222-222-222-222-|
A|-5--3---8--7--222-222-222-222-222-|-5--3---8--7--222-222-222-222-222-|
E|--------------000-000-000-000-000-|--------------000-000-000-000-000-|

e|----------------------------------|----------------------------------|
B|----------------------------------|----------------------------------|
G|----------------------------------|----------------------------------|
D|-7--5--10--9--222-222-222-222-222-|-7--5--10--9--222-222-222-222-222-|
A|-5--3---8--7--222-222-222-222-222-|-5--3---8--7--222-222-222-222-222-|
E|--------------000-000-000-000-000-|--------------000-000-000-000-000-|

e|----------------------------------|
B|----------------------------------|
G|-----------9--9/11--11/12---12/14-|
D|-7--5--10--x--x-x----x-x-----x--x-|  
A|-5--3---8--7--7/9----9/10---10/12-|
E|----------------------------------|

e|----------------------------------|----------------------------------|
B|----------------------------------|----------------------------------|
G|----------------------------------|----------------------------------|
D|-7--5--10--9--222-222-222-222-222-|-7--5--10--9--222-222-222-222-222-|
A|-5--3---8--7--222-222-222-222-222-|-5--3---8--7--222-222-222-222-222-|
E|--------------000-000-000-000-000-|--------------000-000-000-000-000-|

e|----------------------------------|----------------------------------|
B|----------------------------------|----------------------------------|
G|----------------------------------|----------------------------------|
D|-7--5--10--9--222-222-222-222-222-|-7--5--10--9--222-222-222-222-222-|
A|-5--3---8--7--222-222-222-222-222-|-5--3---8--7--222-222-222-222-222-|
E|--------------000-000-000-000-000-|--------------000-000-000-000-000-|

e|----------------|
B|----------------|
G|----------------|
D|-7--5--10--9---2|  
A|-5--3---8--7---2|
E|---------------0|
            
Hard to play? Try these video lessons and learn fast. | Correct




comments powered by Disqus
↑ Back to top | Tablatures and chords are parodies/interpretations of the original songs. You may use it for private study, scholarship, research or language learning purposes only