» » »

Versaemerge, Whisperer Tabs (ver.2)

Artists:  A B C D E F G H I J K L M N O P Q R S T U V W X Y Z # 

Whisperer Tabs (ver.2)

Versaemerge Tabs
 Rating:
4/5 (4 votes)
Whisperer lessons Tabs too difficult? Try these video lessons and learn fast
                Whisperer
VersaEmerge

Drop D
Here's my video of it

Intro (Distortion)
e|---------------------------------------------------------------------|
B|---------------------------------------------------------------------|
G|---------------------------------------------------------------------|
D|--7---7---7-7---7---7-7---7-7-7-7-2---2---2-2---2---2-2-2---2-2-2-3--|
A|--7---7---7-7---7---7-7---7-7-7-7-2---2---2-2---2---2-2-2---2-2-2-3--|
D|--7---7---7-7---7---7-7---7-7-7-7-2---2---2-2---2---2-2-2---2-2-2-3--|


e|-------------------------------------------------------------------------|
B|-------------------------------------------------------------------------|
G|-------------------------------------------------------------------------|
D|--3---3-3---3-3-3---3-3-3---10-10-10-10-10-10-10-10---5-5-5-5---6-6-6-6--|
A|--3---3-3---3-3-3---3-3-3---10-10-10-10-10-10-10-10---5-5-5-5---6-6-6-6--|
D|--3---3-3---3-3-3---3-3-3---10-10-10-10-10-10-10-10---5-5-5-5---6-6-6-6--|


Verse (Clean) You play my nerves...
e|------------------------------------------------------|
B|------------------------------------------------------|
G|----------------5------7--------------------5---------|
D|--7------7------5------7------7------7------5------0--|
A|--7------7------3------5------7------7------3------0--|
D|--7------7--------------------7------7-------------0--|


Since a few aprils ago...
e|------------------------------------------------------|
B|------------------------------------------------------|
G|----------------8------7--------------------8------9--|
D|--7------7------8------7------7------7------8------9--|
A|--7------7------6------5------7------7------6------7--|
D|--7------7--------------------7------7----------------|


Chorus (Distortion) With a touch of your words I saw the devil...
e|---------------------------------------------------------------------|
B|---------------------------------------------------------------------|
G|---------------------------------------------------------------------|
D|--7---7---7-7---7---7-7---7-7-7-7-2---2---2-2---2---2-2-2---2-2-2-3--|
A|--7---7---7-7---7---7-7---7-7-7-7-2---2---2-2---2---2-2-2---2-2-2-3--|
D|--7---7---7-7---7---7-7---7-7-7-7-2---2---2-2---2---2-2-2---2-2-2-3--|


e|-------------------------------------------------------------------------|
B|-------------------------------------------------------------------------|
G|-------------------------------------------------------------------------|
D|--3---3-3---3-3-3---3-3-3---10-10-10-10-10-10-10-10---5-5-5-5---6-6-6-6--|
A|--3---3-3---3-3-3---3-3-3---10-10-10-10-10-10-10-10---5-5-5-5---6-6-6-6--|
D|--3---3-3---3-3-3---3-3-3---10-10-10-10-10-10-10-10---5-5-5-5---6-6-6-6--|


With a touch of your words I've learned to reverse...
e|---------------------------------------------------------------------|
B|---------------------------------------------------------------------|
G|---------------------------------------------------------------------|
D|--7---7---7-7---7---7-7---7-7-7-7-2---2---2-2---2---2-2-2---2-2-2-3--|
A|--7---7---7-7---7---7-7---7-7-7-7-2---2---2-2---2---2-2-2---2-2-2-3--|
D|--7---7---7-7---7---7-7---7-7-7-7-2---2---2-2---2---2-2-2---2-2-2-3--|


e|-------------------------------------------------------------------------|
B|-------------------------------------------------------------------------|
G|-------------------------------------------------------------------------|
D|--3---3-3---3-3-3---3-3-3---10-10-10-10-10-10-10-10---5-5-5-5---6-6-6-6--|
A|--3---3-3---3-3-3---3-3-3---10-10-10-10-10-10-10-10---5-5-5-5---6-6-6-6--|
D|--3---3-3---3-3-3---3-3-3---10-10-10-10-10-10-10-10---5-5-5-5---6-6-6-6--|


Verse 2 (Distortion) We were lit from the west...
e|---------------------------------------------------------------|
B|---------------------------------------------------------------|
G|---------------------------------------------------------------|
D|--7-7-7-7-7-7-7-7-7-7-7-7-7-7-7-6-6-6-6-6-6-6-6-6-6-6-6-6-6-6--|
A|--7-7-7-7-7-7-7-7-7-7-7-7-7-7-7-7-7-7-7-7-7-7-7-7-7-7-7-7-7-7--|
D|--7-7-7-7-7-7-7-7-7-7-7-7-7-7-7-7-7-7-7-7-7-7-7-7-7-7-7-7-7-7--|
    * * * * * * * * * * * * * * * * * * * * * * * * * * * * * *  PM


e|-------------------------------------------------------|
B|-------------------------------------------------------|
G|--8-8-8-8-8-8-8-8-8-8-8-8-8-8-8------------------------|
D|--8-8-8-8-8-8-8-8-8-8-8-8-8-8-8-------0---0---0-0-0-0--|
A|--6-6-6-6-6-6-6-6-6-6-6-6-6-6-6-------0---0---0-0-0-0--|
D|--------------------------------------0---0---0-0-0-0--|
    * * * * * * * * * * * * * * * PM


Chorus (Distortion) With a touch of your words I saw the devil...
e|---------------------------------------------------------------------|
B|---------------------------------------------------------------------|
G|---------------------------------------------------------------------|
D|--7---7---7-7---7---7-7---7-7-7-7-2---2---2-2---2---2-2-2---2-2-2-3--|
A|--7---7---7-7---7---7-7---7-7-7-7-2---2---2-2---2---2-2-2---2-2-2-3--|
D|--7---7---7-7---7---7-7---7-7-7-7-2---2---2-2---2---2-2-2---2-2-2-3--|


e|-------------------------------------------------------------------------|
B|-------------------------------------------------------------------------|
G|-------------------------------------------------------------------------|
D|--3---3-3---3-3-3---3-3-3---10-10-10-10-10-10-10-10---5-5-5-5---6-6-6-6--|
A|--3---3-3---3-3-3---3-3-3---10-10-10-10-10-10-10-10---5-5-5-5---6-6-6-6--|
D|--3---3-3---3-3-3---3-3-3---10-10-10-10-10-10-10-10---5-5-5-5---6-6-6-6--|


With a touch of your words I've learned to reverse...
e|---------------------------------------------------------------------|
B|---------------------------------------------------------------------|
G|---------------------------------------------------------------------|
D|--7---7---7-7---7---7-7---7-7-7-7-2---2---2-2---2---2-2-2---2-2-2-3--|
A|--7---7---7-7---7---7-7---7-7-7-7-2---2---2-2---2---2-2-2---2-2-2-3--|
D|--7---7---7-7---7---7-7---7-7-7-7-2---2---2-2---2---2-2-2---2-2-2-3--|


e|-------------------------------------------------------------------------|
B|-------------------------------------------------------------------------|
G|-------------------------------------------------------------------------|
D|--3---3-3---3-3-3---3-3-3---10-10-10-10-10-10-10-10---5-5-5-5---6-6-6-6--|
A|--3---3-3---3-3-3---3-3-3---10-10-10-10-10-10-10-10---5-5-5-5---6-6-6-6--|
D|--3---3-3---3-3-3---3-3-3---10-10-10-10-10-10-10-10---5-5-5-5---6-6-6-6--|


still speaking like you know what I'm all about...
e|-------------------------------------------------------------------|
B|-------------------------------------------------------------------|
G|-------------------------------------------------------------------|
D|--0-0-0-0-0-0-0-0-0-0-0-0-0-0-0-0-2-2-2-2-2-2-2-2-2-2-2-2-2-2-2-2--|
A|--0-0-0-0-0-0-0-0-0-0-0-0-0-0-0-0-2-2-2-2-2-2-2-2-2-2-2-2-2-2-2-2--|
D|--0-0-0-0-0-0-0-0-0-0-0-0-0-0-0-0-2-2-2-2-2-2-2-2-2-2-2-2-2-2-2-2--|


Verse 3 (Distortion) We were lit from the west...
e|---------------------------------------------------------------|
B|---------------------------------------------------------------|
G|---------------------------------------------------------------|
D|--7-7-7-7-7-7-7-7-7-7-7-7-7-7-7-6-6-6-6-6-6-6-6-6-6-6-6-6-6-6--|
A|--7-7-7-7-7-7-7-7-7-7-7-7-7-7-7-7-7-7-7-7-7-7-7-7-7-7-7-7-7-7--|
D|--7-7-7-7-7-7-7-7-7-7-7-7-7-7-7-7-7-7-7-7-7-7-7-7-7-7-7-7-7-7--|


e|-------------------------------------------------------------------|
B|-------------------------------------------------------------------|
G|--8-8-8-8-8-8-8-8-8-8-8-8-8-8-8-8-7-7-7-7-7-7-7-7-7-7-7-7-7-7-7-7--|
D|--8-8-8-8-8-8-8-8-8-8-8-8-8-8-8-8-7-7-7-7-7-7-7-7-7-7-7-7-7-7-7-7--|
A|--6-6-6-6-6-6-6-6-6-6-6-6-6-6-6-6-5-5-5-5-5-5-5-5-5-5-5-5-5-5-5-5--|
D|-------------------------------------------------------------------|


Chorus (Distortion) With a touch of your words I saw the devil...
e|---------------------------------------------------------------------|
B|---------------------------------------------------------------------|
G|---------------------------------------------------------------------|
D|--7---7---7-7---7---7-7---7-7-7-7-2---2---2-2---2---2-2-2---2-2-2-3--|
A|--7---7---7-7---7---7-7---7-7-7-7-2---2---2-2---2---2-2-2---2-2-2-3--|
D|--7---7---7-7---7---7-7---7-7-7-7-2---2---2-2---2---2-2-2---2-2-2-3--|


e|-------------------------------------------------------------------------|
B|-------------------------------------------------------------------------|
G|-------------------------------------------------------------------------|
D|--3---3-3---3-3-3---3-3-3---10-10-10-10-10-10-10-10---5-5-5-5---6-6-6-6--|
A|--3---3-3---3-3-3---3-3-3---10-10-10-10-10-10-10-10---5-5-5-5---6-6-6-6--|
D|--3---3-3---3-3-3---3-3-3---10-10-10-10-10-10-10-10---5-5-5-5---6-6-6-6--|


With a touch of your words I've learned to reverse...
e|---------------------------------------------------------------------|
B|---------------------------------------------------------------------|
G|---------------------------------------------------------------------|
D|--7---7---7-7---7---7-7---7-7-7-7-2---2---2-2---2---2-2-2---2-2-2-3--|
A|--7---7---7-7---7---7-7---7-7-7-7-2---2---2-2---2---2-2-2---2-2-2-3--|
D|--7---7---7-7---7---7-7---7-7-7-7-2---2---2-2---2---2-2-2---2-2-2-3--|


e|-------------------------------------------------------------------------|
B|-------------------------------------------------------------------------|
G|-------------------------------------------------------------------------|
D|--3---3-3---3-3-3---3-3-3---10-10-10-10-10-10-10-10---5-5-5-5---6-6-6-6--|
A|--3---3-3---3-3-3---3-3-3---10-10-10-10-10-10-10-10---5-5-5-5---6-6-6-6--|
D|--3---3-3---3-3-3---3-3-3---10-10-10-10-10-10-10-10---5-5-5-5---6-6-6-6--|
            
Submit corrections

comments powered by Disqus
↑ Back to top | Versaemerge Tabs for Whisperer. Lyrics for acoustic guitar and electric guitar. Tablatures and chords are parodies/interpretations of the original songs. You may use it for private study, scholarship, research or language learning purposes only