» » »

Up There Tabs (ver.1)

Artists:  A B C D E F G H I J K L M N O P Q R S T U V W X Y Z # 

Up There Tabs (ver.1)

Versaemerge
Rating:
0/5 (0 votes)

Hard to play? Try these video lessons and learn fast.
                
there's no guitar till the first pre-chorus thingy

e|------------------------------------|
B|------------------------------------|
G|-8-------11-----4-------------------|
D|-x-(x18)-x-(x6)-x-(x18)-6-6-6-5xxxx-|
A|-6-------9------2-------6-6-6-5xxxx-|
D|------------------------6-6-6-5xxxx-|

Chorus

e|------------------------------------|
B|------------------------------------|
G|------------------------------------|
D|-1-(x18)-4-(x6)-9-(x18)-6-6-6-5-5-5-|
A|-1-------4------9-------6-6-6-5-5-5-|
D|-1-------4------9-------6-6-6-5-5-5-| (x2)

Second Verse:
Listen to the song to get the strumming pattern
Theeeeere'ss sooooomeeethiiiiiinnngg up theeeeere it sleeps out the cracks of my liips
e|-------------------------|
B|-44--44-4444-66--66-6666-|
G|-44--44-4444-77--77-7777-|
D|-66--66-6666-88--88-8888-|
A|-66--66-6666-88--88-8888-|(x4)
D|-------------------------|

e|-------------------------|
B|-44--44-4444-66--66-6666-|
G|-44--44-4444-77--77-7777-|
D|-44--44-4444-88--88-8888-|
A|-22--22-2222-88--88-8888-|(x3)
D|-------------------------|
then
(i'm not really sure of this bit)
e|-------------------------|
B|-77--77-7777-66--66-6666-|
G|-88--88-8888-77--77-7777-|
D|-99--99-9999-88--88-8888-|
A|-99--99-9999-88--88-8888-|
D|-------------------------|

Repeat the chorus

Bridge:(There's also some lead guitar in this bit but i can't figure it out so if you 
it, well help me out please.)

e|--------------------------------------------------------|
B|--------------------------------------------------------|
G|-888888777777666666555555------444444333333444446777777-|
D|-xxxxxxxxxxxxxxxxxxxxxxxx-(x2)-444444333333444446777777-|
A|-666666555555444444333333------222222111111222224555555-|
D|--------------------------------------------------------|

e|-----------------------|
B|-----------------------|
G|-444444333333-2--------|
D|-444444333333-2-(x24)--|
A|-222222111111-0--------|
D|-----------------------|

Right before the last Chorus blake plays a D# chord but i'm not pretty sure which one it 
but just play the power chord to D# instead

here it is in case you're wondering what D# is

e|---|
B|---|
G|-8-|
D|-8-|
A|-6-|
D|---|

Then just repeat the chorus till the end.


There are some lead bits on the bridge
            
Hard to play? Try these video lessons and learn fast. | Correct




comments powered by Disqus
↑ Back to top | Tablatures and chords are parodies/interpretations of the original songs. You may use it for private study, scholarship, research or language learning purposes only