» » »

Versaemerge, Toxic Tabs (ver.1)

Artists:  A B C D E F G H I J K L M N O P Q R S T U V W X Y Z # 

Toxic Tabs (ver.1)

Versaemerge Tabs
 Rating:
4/5 (4 votes)
Toxic lessons Tabs too difficult? Try these video lessons and learn fast
                VersaEmerge - Toxic
Britney Spears cover


Intro:
e|-8----8----8----8----8-----8-----8---8--|
B|---8----8----9----9----10----10------11-|
G|----8----8----8----8-----8-----8-----8--|
D|-10---10---10---10---10----10----10--10-|
A|----------------------------------------|
E|----------------------------------------|

Verse 1:
(Baby, can’t you see?... You’re dangerous, I’m lovin’ it)
e|-3---3--3-3-3---3--3-3-3---3--3-3-3---3--3-3-6---6--6-6-3---3--3-3-3-|
B|-4---4--4-4-4---4--4-4-4---4--4-4-4---4--4-4-7---7--7-7-3---3--3-3-4-|
G|-5---5--5-5-5---5--5-5-5---5--5-5-5---5--5-5-8---8--8-8-4---4--4-4-5-|
D|-5---5--5-5-5---5--5-5-5---5--5-5-5---5--5-5-8---8--8-8-5---5--5-5-5-|
A|-3---3--3-3-3---3--3-3-3---3--3-3-3---3--3-3-6---6--6-6-5---5--5-5-3-|
E|-3---3--3-3-3---3--3-3-3---3--3-3-3---3--3-3-6---6--6-6-3---3--3-3-3-|

e|-3--3-3-3----3--3-3-3----3--3-3-3----3--3-3-3----3--3-3-6---6--6-6-6-|
B|-4--4-4-4----4--4-4-4----4--4-4-4----4--4-4-4----4--4-4-7---7--7-7-7-|
G|-5--5-5-5----5--5-5-5----5--5-5-5----5--5-5-5----5--5-5-8---8--8-8-8-|
D|-5--5-5-5----5--5-5-5----5--5-5-5----5--5-5-5----5--5-5-8---8--8-8-8-|
A|-3--3-3-3----3--3-3-3----3--3-3-3----3--3-3-3----3--3-3-6---6--6-6-6-|
E|-3--3-3-3----3--3-3-3----3--3-3-3----3--3-3-3----3--3-3-6---6--6-6-6-|

e|-3--3-3-3---3--3-3-3-|
B|-3--3-3-4---4--4-4-4-|
G|-4--4-4-5---5--5-5-5-|
D|-5--5-5-5---5--5-5-5-|
A|-5--5-5-3---3--3-3-3-|
E|-3--3-3-3---3--3-3-3-|

Pre-chorus:
(Too high, can’t come down... Do you feel me now?)
e|-3--3-3-3---3-3--3-3-3---3-3--3-3-3---3-3--3-3-3---6-6--6-6-6---3-3--3-3-3|
B|-4--4-4-4---4-4--4-4-4---4-4--4-4-4---4-4--4-4-4---7-7--7-7-7---3-3--3-3-3|
G|-5--5-5-5---5-5--5-5-5---5-5--5-5-5---5-5--5-5-5---8-8--8-8-8---4-4--4-4-4|
D|-5--5-5-5---5-5--5-5-5---5-5--5-5-5---5-5--5-5-5---8-8--8-8-8---5-5--5-5-5|
A|-3--3-3-3---3-3--3-3-3---3-3--3-3-3---3-3--3-3-3---6-6--6-6-6---5-5--5-5-5|
E|-3--3-3-3---3-3--3-3-3---3-3--3-3-3---3-3--3-3-3---6-6--6-6-6---3-3--3-3-3|

e|-3-3--3-3-3-|
B|-4-4--4-4-4-|
G|-5-5--5-5-5-|
D|-5-5--5-5-5-|
A|-3-3--3-3-3-|
E|-3-3--3-3-3-|


e|-8--8--8--8--8--8--8--8--8--8--8--8--8--8--8--8--|
B|-8--8--8--8--8--8--8--8--9--9--9--9--9--9--9--9--|
G|-8--8--8--8--8--8--8--8--8--8--8--8--8--8--8--8--|
D|-10-10-10-10-10-10-10-10-10-10-10-10-10-10-10-10-|
A|-------------------------------------------------|
E|-------------------------------------------------|
Chorus:
(With a taste of your lips... that your toxic?)
e|-3-3--3-3-3---6-6--6-6-6---5-5--5-5-5---4-4--4-4-4-|
B|-4-4--4-4-4---7-7--7-7-7---6-6--6-6-6---5-5--5-5-5-|
G|-5-5--5-5-5---8-8--8-8-8---7-7--7-7-7---6-6--6-6-6-|
D|-5-5--5-5-5---8-8--8-8-8---7-7--7-7-7---6-6--6-6-6-|
A|-3-3--3-3-3---6-6--6-6-6---5-5--5-5-5---4-4--4-4-4-|
E|-3-3--3-3-3---6-6--6-6-6---5-5--5-5-5---4-4--4-4-4-|
                                                            X2
e|-3-3--3-3-3---6-6--6-6-6---4-4--4-4-4---3-3--3-3-3-|
B|-4-4--4-4-4---7-7--7-7-7---4-4--4-4-4---3-3--3-3-3-|
G|-5-5--5-5-5---8-8--8-8-8---5-5--5-5-5---4-4--4-4-4-|
D|-5-5--5-5-5---8-8--8-8-8---6-6--6-6-6---5-5--5-5-5-|
A|-3-3--3-3-3---6-6--6-6-6---6-6--6-6-6---5-5--5-5-5-|
E|-3-3--3-3-3---6-6--6-6-6---4-4--4-4-4---3-3--3-3-3-|

Verse 2:
(It’s getting late... Slowly, taking over me)
e|-3---3--3-3-3---3--3-3-3---3--3-3-3---3--3-3-6---6--6-6-3---3--3-3-3-|
B|-4---4--4-4-4---4--4-4-4---4--4-4-4---4--4-4-7---7--7-7-3---3--3-3-4-|
G|-5---5--5-5-5---5--5-5-5---5--5-5-5---5--5-5-8---8--8-8-4---4--4-4-5-|
D|-5---5--5-5-5---5--5-5-5---5--5-5-5---5--5-5-8---8--8-8-5---5--5-5-5-|
A|-3---3--3-3-3---3--3-3-3---3--3-3-3---3--3-3-6---6--6-6-5---5--5-5-3-|
E|-3---3--3-3-3---3--3-3-3---3--3-3-3---3--3-3-6---6--6-6-3---3--3-3-3-|

e|-3--3-3-3-|
B|-4--4-4-4-|
G|-5--5-5-5-|
D|-5--5-5-5-|
A|-3--3-3-3-|
E|-3--3-3-3-|

Pre-chorus:
(Too high, can’t come down... Oh do you feel me now?)
e|-3--3-3-3---3-3--3-3-3---3-3--3-3-3---3-3--3-3-3---6-6--6-6-6---3-3--3-3-3|
B|-4--4-4-4---4-4--4-4-4---4-4--4-4-4---4-4--4-4-4---7-7--7-7-7---3-3--3-3-3|
G|-5--5-5-5---5-5--5-5-5---5-5--5-5-5---5-5--5-5-5---8-8--8-8-8---4-4--4-4-4|
D|-5--5-5-5---5-5--5-5-5---5-5--5-5-5---5-5--5-5-5---8-8--8-8-8---5-5--5-5-5|
A|-3--3-3-3---3-3--3-3-3---3-3--3-3-3---3-3--3-3-3---6-6--6-6-6---5-5--5-5-5|
E|-3--3-3-3---3-3--3-3-3---3-3--3-3-3---3-3--3-3-3---6-6--6-6-6---3-3--3-3-3|

e|-3-3--3-3-3-|
B|-4-4--4-4-4-|
G|-5-5--5-5-5-|
D|-5-5--5-5-5-|
A|-3-3--3-3-3-|
E|-3-3--3-3-3-|

Chorus:
e|-3-3--3-3-3---6-6--6-6-6---5-5--5-5-5---4-4--4-4-4-|
B|-4-4--4-4-4---7-7--7-7-7---6-6--6-6-6---5-5--5-5-5-|
G|-5-5--5-5-5---8-8--8-8-8---7-7--7-7-7---6-6--6-6-6-|
D|-5-5--5-5-5---8-8--8-8-8---7-7--7-7-7---6-6--6-6-6-|
A|-3-3--3-3-3---6-6--6-6-6---5-5--5-5-5---4-4--4-4-4-|
E|-3-3--3-3-3---6-6--6-6-6---5-5--5-5-5---4-4--4-4-4-|
                                                            X2
e|-3-3--3-3-3---6-6--6-6-6---4-4--4-4-4---3-3--3-3-3-|
B|-4-4--4-4-4---7-7--7-7-7---4-4--4-4-4---3-3--3-3-3-|
G|-5-5--5-5-5---8-8--8-8-8---5-5--5-5-5---4-4--4-4-4-|
D|-5-5--5-5-5---8-8--8-8-8---6-6--6-6-6---5-5--5-5-5-|
A|-3-3--3-3-3---6-6--6-6-6---6-6--6-6-6---5-5--5-5-5-|
E|-3-3--3-3-3---6-6--6-6-6---4-4--4-4-4---3-3--3-3-3-|

e|-7----7----7---7---7---7---7---7----7----7---7---7---7---7---9-|
B|--10---10---9---9---8---8---7---10---10---9---9---8---8---8----|
G|----7----7---7---7---7---7---7----7----7---7---7---7---7---7---|
D|-9----9----9---9---9---9---9---9----9----9---9---9---9---9-----|
A|---------------------------------------------------------------|
E|---------------------------------------------------------------|


e|-5-5--5-5-5---4-4--4-4-4-|
B|-6-6--6-6-6---5-5--5-5-5-|
G|-7-7--7-7-7---6-6--6-6-6-|
D|-7-7--7-7-7---6-6--6-6-6-|
A|-5-5--5-5-5---4-4--4-4-4-|
E|-5-5--5-5-5---4-4--4-4-4-|

e|-3-3--3-3-3---6-6--6-6-6---4-4--4-4-4---3-3--3-3-3-|
B|-4-4--4-4-4---7-7--7-7-7---4-4--4-4-4---3-3--3-3-3-|
G|-5-5--5-5-5---8-8--8-8-8---5-5--5-5-5---4-4--4-4-4-|
D|-5-5--5-5-5---8-8--8-8-8---6-6--6-6-6---5-5--5-5-5-|
A|-3-3--3-3-3---6-6--6-6-6---6-6--6-6-6---5-5--5-5-5-|
E|-3-3--3-3-3---6-6--6-6-6---4-4--4-4-4---3-3--3-3-3-|


e|-3-3--3-3-3---6-6--6-6-6---5-5--5-5-5---4-4--4-4-4-|
B|-4-4--4-4-4---7-7--7-7-7---6-6--6-6-6---5-5--5-5-5-|
G|-5-5--5-5-5---8-8--8-8-8---7-7--7-7-7---6-6--6-6-6-|
D|-5-5--5-5-5---8-8--8-8-8---7-7--7-7-7---6-6--6-6-6-|
A|-3-3--3-3-3---6-6--6-6-6---5-5--5-5-5---4-4--4-4-4-|
E|-3-3--3-3-3---6-6--6-6-6---5-5--5-5-5---4-4--4-4-4-|

e|-3-3--3-3-3---6-6--6-6-6---4-4--4-4-4---3-3--3-3-3-3-3-3-3-|
B|-4-4--4-4-4---7-7--7-7-7---4-4--4-4-4---3-3--3-3-3-3-3-3-3-|
G|-5-5--5-5-5---8-8--8-8-8---5-5--5-5-5---4-4--4-4-4-4-4-4-4-|
D|-5-5--5-5-5---8-8--8-8-8---6-6--6-6-6---5-5--5-5-5-5-5-5-5-|
A|-3-3--3-3-3---6-6--6-6-6---6-6--6-6-6---5-5--5-5-5-5-5-5-5-|
E|-3-3--3-3-3---6-6--6-6-6---4-4--4-4-4---3-3--3-3-3-3-3-3-3-|


e|-3-3--3-3-3---6-6--6-6-6---5-5--5-5-5---4-4--4-4-4-|
B|-4-4--4-4-4---7-7--7-7-7---6-6--6-6-6---5-5--5-5-5-|
G|-5-5--5-5-5---8-8--8-8-8---7-7--7-7-7---6-6--6-6-6-|
D|-5-5--5-5-5---8-8--8-8-8---7-7--7-7-7---6-6--6-6-6-|
A|-3-3--3-3-3---6-6--6-6-6---5-5--5-5-5---4-4--4-4-4-|
E|-3-3--3-3-3---6-6--6-6-6---5-5--5-5-5---4-4--4-4-4-|

e|-3-3--3-3-3---6-6--6-6-6---4-4--4-4-4---3-3--3-3-3-|
B|-4-4--4-4-4---7-7--7-7-7---4-4--4-4-4---3-3--3-3-3-|
G|-5-5--5-5-5---8-8--8-8-8---5-5--5-5-5---4-4--4-4-4-|
D|-5-5--5-5-5---8-8--8-8-8---6-6--6-6-6---5-5--5-5-5-|
A|-3-3--3-3-3---6-6--6-6-6---6-6--6-6-6---5-5--5-5-5-|
E|-3-3--3-3-3---6-6--6-6-6---4-4--4-4-4---3-3--3-3-3-|
            
Submit corrections

comments powered by Disqus
↑ Back to top | Versaemerge Tabs for Toxic. Lyrics for acoustic guitar and electric guitar. Tablatures and chords are parodies/interpretations of the original songs. You may use it for private study, scholarship, research or language learning purposes only