» » »

Versaemerge, The Authors Tabs (ver.2)

Artists:  A B C D E F G H I J K L M N O P Q R S T U V W X Y Z # 

The Authors Tabs (ver.2)

Versaemerge Tabs
Rating:
5/5 (3 votes)
The Authors lessons Tabs too difficult? Try these video lessons and learn fast
                -------------------------------------------------------------------------------
                             THE AUTHORS by VERSAEMERGE
-------------------------------------------------------------------------------

Tuning: Drop D (DADGBE)for Rhythm Guitar

VersaEmerge is a really great and talented band signed by FBR. Check out more of their songs!

INTRO: Somewhat difficult because lead guitar is playing in 5/4 or odd time signature. 
to keep up with it.

e|------------------------------------------|
B|------------------------------------------|
G|------------------------------------------|
D|--0-0-0-0--8-8-8--10-10-10-8-8-8-10-8888--|
A|--0-0-0-0--8-8-8--10-10-10-8-8-8-10-8888--|
D|--0-0-0-0--8-8-8--10-10-10-8-8-8-10-8888--|                                    ....

e|-----------------------------------------------------------------------------|
B|-----------------------------------------------------------------------------|
G|-----------------------7777777/9999999/--------------------------------------|
D|---0000000-333333h5555/5555555/7777777/8888888-------3------7----------8-----|
A|---0000000-333333h3333/5555555/7777777/8888888-(lots)3-(8x)-7-(8x)-----8~----|
D|---0000000-333333------5555555/7777777/8888888-------3------7----------8-----|


VERSE: Now this gets trickier. Listen carefully to the song for the strumming.
 Trust me the song should be played in this pattern The chords might be different but I 
my best here.
Before every (888) or A#, strike the strings with your pick for that crunchy resonance sound.

e|---------------------------------------------------------------------------|
B|---------------------------------------------------------------------------|
G|---------------------------------------------------------------------------|
D|--3333---8~-(333/888-8/---88)----------------------------------------------|
A|--3333---8~-(333/888-8/---88)-repeat this part twice-----------------------|
D|--3333---8~-(333/888-8/---88)----------------------------------------------|

PRECHORUS:

e|-----------------------------------------------------------------------------|
B|-----------------------------------------------------------------------------|
G|--333333333333333---55555555555555555555-------------------------------------|
D|--333333333333333---55555555555555555555-------------------------------------|
A|--111111111111111---33333333333333333333-------------------------------------|
D|-----------------------------------------------------------------------------|
    ................................


REPEAT THE INTRO FOR THE CHORUS. I'll TAB OUT THE LEAD GUITAR AND THE REST OF THE RHYTHM LATER.

| /  slide up
| \  slide down
| h  hammer-on
| p  pull-off
| ~  vibrato
| +  harmonic
| x  Mute note
===============================================================================
            

comments powered by Disqus
↑ Back to top | Versaemerge Tabs for The Authors. Lyrics for acoustic guitar and electric guitar. Tablatures and chords are parodies/interpretations of the original songs. You may use it for private study, scholarship, research or language learning purposes only