» » »

The Authors Bass tabs (ver.1)

Artists:  A B C D E F G H I J K L M N O P Q R S T U V W X Y Z # 

The Authors Bass tabs (ver.1)

Versaemerge
Rating:
4/5 (3 votes)

Hard to play? Try these video lessons and learn fast.
                -------------------------------------------------------------------------------
-------------------------------------------------------------------------------

Tuning: Drop D


intro
G|--------------------------------------|
D|--------------------------------------|
A|------------0000-11111111-3--111------|
D|000000000000--------------------------|

G|-------------------------------------------------------------------|
D|-------------------------------------------------------------------|
A|----------333---------00000000-1-11-1~-11~--1111-------------------|
D|0-000-333-----55555555---------------------------33333333-55555555-|

Verse "They're letting their eyes cross."
G|------------------|----------------------------------|
D|------------------|----------------------------------|
A|1~------------1~--|-----1111-1~-11~-----111-1-1~--11-|
D|------333---------|-000-------------333-------------0|

pre-chorus "impact is up to us."
G|---------------------------------|
D|---------------------------------|
A|1111111111111111-33333333333-3-3-|
D|---------------------------------|

chorus "it's all these days that kept us so far away."
G|--------------------------------------------------------------------|
D|--------------------------------------------------------------------|
A|-------------3333---------0000000-0-1-111-1-11-111------------------|
E|00000-333333------5555555--------------------------33333333-55555555|x2

G|---------------------------------------------------------|
D|---------------------------------------------------------|
A|--------------------------------11-11-1-11-1-1-1---------|
D|000000-00-0-0--0000000-0-3-33-3-----------------55555555-|

Verse "Not in the mood.."
G|------------------------------------------------------------|
D|------------------------------------------------------------|
A|1~-------5~--0~---111-11-11-111-111--555-55-55-555-0-000000-|
D|---555~---------5------------------5------------------------|

pre-chorus "impact is inevitable..."
G|--------------------------------------------------------------|
D|--------------------------------------------------------------|
A|1111111111111111111111111111111-3333333333333333333333333-111-|
D|--------------------------------------------------------------|

chorus "it's all these days that kept us so far away."
G|--------------------------------------------------------------------|
D|--------------------------------------------------------------------|
A|-------------3333---------0000000-0-1-111-1-11-111------------------|
E|00000-333333------5555555--------------------------33333333-55555555|x2

bridge "i hope i'm not the only one.."
G|---------------------------------------------------------------|
D|---------------------------------------------------------------|
A|555555555555555-44-4-44-4444444-3333333333333333-22222222222222|
D|---------------------------------------------------------------|

G|---------131-0---------33333333333-|
D|------13-------310-----------------|
A|11-13--------------3-1-------------|
D|-----------------------------------|

outro chorus "it's all these days that kept us so far away."

G|-----------------------------------------------------|
D|-----------------------------------------------------|
A|-----------0000000-0-111111111111111-----------------|
D|5-55555555--------------------------333333333-5555555|

G|--------------------------------------------------------------------------------|
D|--------------------------------------------------------------------------------|
A|--------3333--------00000000-1-111-11111111111----------------------------------|
D|000-3333----55555555---------------------------33333333-55555555-00-00-0-00-0-0-|

--------------------|
--------------------|
---------5555555----|
-0000000000-------00|
            
Hard to play? Try these video lessons and learn fast. | Correct




comments powered by Disqus
↑ Back to top | Tablatures and chords are parodies/interpretations of the original songs. You may use it for private study, scholarship, research or language learning purposes only