» » »

Stranger Tabs (ver.1)

Artists:  A B C D E F G H I J K L M N O P Q R S T U V W X Y Z # 

Stranger Tabs (ver.1)

Versaemerge
Rating:
5/5 (1 vote)
Tabs too difficult? Try these video lessons and learn fast.
                Band: VersaEmerge

*Intro:
Play these parts twice
e|--5-----5-----5-----5-----5-----5-----5-----5------|
B|----5-----5-----5-----5-----6-----6-----6-----6----|
G|------5-----5-----5-----5-----5-----5-----5-----5--|
D|--7-----7-----7-----7-----7-----7-----7-----7------|
A|---------------------------------------------------|
D|---------------------------------------------------|

e|--5-----5-----5-----5-----5-----7-----8-----7------|
B|----8-----8-----8-----8-----6-----6-----6-----6----|
G|------5-----5-----5-----5-----5-----5-----5-----5--|
D|--7-----7-----7-----7-----7-----7-----7-----7------|
A|---------------------------------------------------|
D|---------------------------------------------------|

Then play these
e|--12-------12-------12-------12-------10-------10-------10-------10-------|
B|-----10-------10-------10-------10-------10-------10-------10-------10----|
G|--------12-------12-------12-------12-------10-------10-------10-------10-|
D|--12-------12-------12-------12-------8--------8--------8--------8--------|
A|--------------------------------------------------------------------------|
D|--------------------------------------------------------------------------|

e|--5-----5-----6-----5-----6-----6-----8-----6------6--5--|
B|----6-----6-----6-----6-----6-----6-----6-----6----6--5--|
G|------7-----7-----7-----7-----7-----7-----7-----7--7--6--|
D|--7-----7-----7-----7-----8-----8-----8-----8------8--7--|
A|---------------------------------------------------------|
D|---------------------------------------------------------|
then strum the last chord like 12 times and go to the chorus

*Chorus:
There are like 3 ways you can play the chorus but it's pm the same
1*-One of them is the way they play it acoustic(i really like playing it like this)
e|-----5----------------------------------------------------------------------|
B|-----6--5-(move to the 6th fret here too, listen to the song to get it :D)--|
G|--5--7--6-------------------------------------------------------------------|
D|--3--7--7-------------------------------------------------------------------|
A|--3--5--7-------------------------------------------------------------------|
D|--3-------------------------------------------------------------------------|
Strum those chords twice and then play these chords
e|-----5--3--5-----|--------|
B|-----6--5--6--5--|--------|
G|--5--7--5--7--6--|--5--4--|
D|--3--7--5--7--7--|--3--2--|
A|--3--5--3--5--7--|--3--2--|
D|--3--------------|--3--2--|
.....for your hand..is my good side...
2*-Another way would be playing it like on the record just hitting the bass notes
(these are the 2 lowest strings btw)
A|---------3/5-55-55------------------|
D|-3-33-33-----------7-77-77-7-77-77--| x2
Then
A|---------3/5-55-55-33335555----------|
D|-3-33-33--------------------7-77-77--|
and
D|-----------------------(0-2)--|
A|------------------------------|
D|-3-33-33-3-3555-2-22-22-22----|
i'm unsure of the thing in parenthesis
3*-The other way would be playing the powerchords to the bass notes of the 2nd way

*Verse:
Blake plays this before Sierra starts to sing
e|--5-----5-----5-----5-----5-----5-----7-----8---|
B|----5-----5-----6-----6-----8-----8-----6-------|
G|------5-----5-----5-----5-----5-----5-----5-----|
D|--7-----7-----7-----7-----7-----7-----7-----7---|
A|------------------------------------------------|
D|------------------------------------------------|

it's so eaasyyy
e|--5-----5-----5-----5-----5-----5-----5-----5------|
B|----5-----5-----5-----5-----6-----6-----6-----6----|
G|------5-----5-----5-----5-----5-----5-----5-----5--|
D|--7-----7-----7-----7-----7-----7-----7-----7------|
A|---------------------------------------------------|
D|---------------------------------------------------|

e|--5-----5-----5-----5-----5-----7-----8-----7------|
B|----8-----8-----8-----8-----6-----6-----6-----6----|
G|------5-----5-----5-----5-----5-----5-----5-----5--|
D|--7-----7-----7-----7-----7-----7-----7-----7------|
A|---------------------------------------------------|
D|---------------------------------------------------|

finding laame reaasoooooooooooooooooooooooooooooons
e|--12-------12-------12-------12-------10-------10-------10-------10-------|
B|-----10-------10-------10-------10-------10-------10-------10-------10----|
G|--------12-------12-------12-------12-------10-------10-------10-------10-|
D|--12-------12-------12-------12-------8--------8--------8--------8--------|
A|--------------------------------------------------------------------------|
D|--------------------------------------------------------------------------|
and strum this chord:
e|--5--|
B|--5--|
G|--6--|
D|--7--|
A|-----|
D|-----|

*-Now play the chorus again

*Bridge:
Guitar 1.
(these are the higher strings) just play some tremolo picking on these frets.
e|-12--11--12--13-15-12--11--10-8----|
B|-----------------------------------| x2
then
e|-12--11--12--13-15-12--11----------|
B|---------------------------13-12---|

Guitar 2.
(these are the lower strings)
A|---------------------------(10'S not 1's and 0's)-|
D|-77777777-66666666-77777777-8888-10101010---------|
then
A|--------------------------------------|
D|-77777777-66666666-55555555-33333333--|
this again
A|---------------------------(10'S not 1's and 0's)-|
D|-77777777-66666666-77777777-8888-10101010---------|
and end with this
A|--------------------------------------|
D|-77777777-66666666-33333333-22222222--|

Guitar 3.
Listen to the song to know when you start playing this.
e|------------------------------------|
B|--10------9------12-----------------|
G|-----9------8-------9-----77777777--|
D|-------10-----10------10--XXXXXXXX--|
A|--------------------------55555555--|
D|------------------------------------|
i'm not really sure about the last bit, but listen close to know the timing
e|-----------------------15------16--17---|
B|--10------9------12-13-----17-----------|
G|-----9------8---------------------------|
D|-------10-----10------------------------|
A|----------------------------------------|
D|----------------------------------------|

*what part is this some kind of breakdown?:
there are no guitars playing here but i usually just play this
e|---------------|
B|---------------|
G|---------------|
D|-(3)-(0)--(7)--|
A|---------------|
D|--3---0----7---| i sometimes play the notes in parenthesis too :D

*Play the chorus twice*

Outro:
e|--5-----5-----5-----5-----5-----5-----7-----8---|
B|----5-----5-----6-----6-----8-----8-----6-------|
G|------5-----5-----5-----5-----5-----5-----5-----|
D|--7-----7-----7-----7-----7-----7-----7-----7---|
A|------------------------------------------------|
D|------------------------------------------------|

e|--12-------12-------10-------10--------|
B|-----10-------10-------10-------10-----|
G|--------12-------12-------10-------10--|
D|--12-------12--------8--------8--------|
A|---------------------------------------|
D|---------------------------------------|

and well that's it now you can play Stranger by VersaEmerge
HELL YEAH! IMMA SHOW THIS TO MAH FRANDS SO THEY CAN BE JEALZ OF MA GEETAR SKILLS. DAMN 
WHY SO AWESOME?
            
Tabs too difficult? Try these video lessons and learn fast.


comments powered by Disqus
↑ Back to top | Tablatures and chords are parodies/interpretations of the original songs. You may use it for private study, scholarship, research or language learning purposes only