» » »

Versaemerge, Redesign Me Bass tabs (ver.1)

Artists:  A B C D E F G H I J K L M N O P Q R S T U V W X Y Z # 

Redesign Me Bass tabs (ver.1)

Versaemerge Tabs
Rating:
0/5 (0 votes)
Redesign Me lessons Tabs too difficult? Try these video lessons and learn fast
                -------------------------------------------------------------------------------
-------------------------------------------------------------------------------


Okay, so I tabbed out this song for a 4-string bass in Drop D, and a 5
string bass in standard, and about the only part I;m not too sure
about is the bridge. 

Please rate and comment. Enjoy.



Tuning: Drop D


Verse x2

G|----------------------------------|
D|----------------------------------|
A|33333333---------55555555---------|
D|---------66666666--------55555555-|


Pre-Chorus x1

G|----------------------------------------|
D|----------------------------------------|
A|----------------------------------------|
D|3333-5555-6666-8888-3333-5555-6666-5555-|


Chorus

G|--------------------------------------------|
D|--------------------------------------------|
A|--------------------------------------------| x3
D|66666666-88888888-1010101010101010-11111111-|

G|-----------------|
D|-----------------|
A|-----------------| 4th time
D|66666666-55555-~-|


Pre-Verse x1

G|-----------------------------------------------------------------|
D|-----------------------------------------------------------------|
A|3x3x3x3x3x3x3x3x----------------5x5x5x5x5x5x5x5x-----------------|
E|----------------6x6x6x6x6x6x6x6x----------------6x6x6x6x6x6x6x6x-|

Verse x2

Pre-Chorus x1

Chorus


Bridge X1

G|--------------------------------------------|
D|--------------------------------------------|
A|--------------------------------------------|
D|6~----8~----\3~--------6~----10\8~----6--3~-|

G|-------------------------------------------------|
D|-------------------------------------------------|
A|-------------------------------------------------|
E|6~----6h8~-----10--3~------6~----8~----3~--------|

Chorus


Outro x1  NOT SURE ABOUT THE FIRST NOTE HERE

G|--------------------------------------------------------------------------|
D|--------------------------------------------------------------------------|
A|--------------------------------------------------------------------------|
D|1~------6~----8~----3~--------6~----8~----3~--------6~----8~----3~--------|





Tuning: Standard 5-string (B E A D G) Low to high


Verse x2

G|-----------------------------------------|
D|-----------------------------------------|
A|-----------------------------------------|
E|88888888--------1010101010101010---------|
B|--------99999999----------------88888888-|


Pre-Chorus x1

G|---------------------------------------|
D|---------------------------------------|
A|---------------------------------------|
E|--------------6666---------------------|
B|6666-8888-9999-----6666-8888-9999-8888-|


Chorus

G|----------------------------------|
D|----------------------------------|
A|----------------------------------| x3
E|--------66666666-88888888---------|
B|99999999-----------------44444444-|

G|----------------|
D|----------------|
A|----------------| 4th time
E|----------------|
B|99999999-88888~-|


Pre-Verse x1

G|-------------------------------------------------------------------------|
D|-------------------------------------------------------------------------|
A|-------------------------------------------------------------------------|
E|8x8x8x8x8x8x8x8x----------------10x10x10x10x10x10x10x10x-----------------|
B|----------------9x9x9x9x9x9x9x9x------------------------8x8x8x8x8x8x8x8x-|

Verse x2

Pre-Chorus x1

Chorus


Bridge x1

G|------------------------------------------|
D|------------------------------------------|
A|------------------------------------------|
E|-------6~--------------------8\6~---------|
B|9~-----------6~--------9~-----------9--6~-|

G|---------------------------------------------|
D|---------------------------------------------|
A|---------------------------------------------|
E|-------6~------8-------------6~--------------|
B|9~----9---------6~-----9~----------6~--------|

Chorus


Outro x1

G|--------------------------------------------------------------------------|
D|--------------------------------------------------------------------------|
A|--------------------------------------------------------------------------|
E|--------------6~--------------------6~--------------------6~--------------|
B|4~------9~----------6~--------9~----------6~--------9~----------6~--------|




| /  slide up
| \  slide down
| h  hammer-on
| p  pull-off
| ~  vibrato
| +  harmonic
| x  Mute note
===============================================================================
            
Submit corrections

comments powered by Disqus
↑ Back to top | Versaemerge Bass for Redesign Me. Lyrics for acoustic guitar and electric guitar. Tablatures and chords are parodies/interpretations of the original songs. You may use it for private study, scholarship, research or language learning purposes only