>
 >
Mythology

Mythology Guitar Tabs

Versaemerge - Mythology chords, tabs, tablatures, lyrics

Guitar lessons | Add/correct | Request | Top 50 tabs Artists:  A B C D E F G H I J K L M N O P Q R S T U V W X Y Z 0-9

Mythology Guitar Tabs – Versaemerge

CD, Sheet music, Poster

Do you like Mythology? Share with your friends now
ChordsTabs
=========
=========

This song has NO lead guitar parts

Intro:
Figure the strumming out
e|------------------|----------------|
B|------------------|----------------|
G|-----5---8--4-----|-----5-------5--|
D|-6---5---8--4-5---|-6---5---5---5--|
A|-6---3---6--2-5---|-6---3---5---3--|
D|-6------------5---|-6-------5------|

Verse: Clean Guitar
e|--------------------|----------------------------|
B|-4--4-4-4-4-4-------|-4--4-4-6-6-6--4--4-4-4-4-4-|
G|-5--5-5-5-5-5--(x2)-|-5--5-5-6-6-6--5--5-5-4-4-4-|
D|-5--5-5-6-6-6-------|-5--5-5-6-6-6--6--6-6-4-4-4-|
A|-3--3-3-6-6-6-------|-3--3-3-4-4-4--6--6-6-2-2-2-|
D|-------(6-6-6)------|----------------------------|

play that twice

Pre-Chorus numbah 1
I'VE GROWN INTO THIS----THIS MYTH WITH YOUUUUUUU
e|--------------------------------------------------------|
B|-4---------3-------4------------------3333333333333-----|
G|-5---------3-------5------------------4444444444444-----|
D|-5---------3-------6------------------5555555555555-----|
A|-3---------1-------6------------------5555555555555-----|
D|--------------------------------------------------------|

The Chorus is the same as the intro

Verse 2:

e|--------------------|----------------------------|
B|-4--4-4-4-4-4-------|-4--4-4-6-6-6--4--4-4-4-4-4-|
G|-5--5-5-5-5-5--(x2)-|-5--5-5-6-6-6--5--5-5-4-4-4-|
D|-5--5-5-6-6-6-------|-5--5-5-6-6-6--6--6-6-4-4-4-|
A|-3--3-3-6-6-6-------|-3--3-3-4-4-4--6--6-6-2-2-2-|
D|-------(6-6-6)------|----------------------------|

Play that once then the second time that goes like NOTHING IN ME WAS THE SAME you just 
those chords up and down.

Pre-Chorus numbah 2


Pre-Chorus numbah 1
I'VE GROWN INTO THIS
e|---------------|
B|-4---------3---|
G|-5---------3---|
D|-5---------3---|
A|-3---------1---|
D|---------------|
MYYYTH WIIIIIIIIIIIIIIIITHYOOOOOOOOOOOOOUUUUUUUUUU

e|----------------------------|
B|----------------------------|
G|-5--3--3-2------------------|
D|-5--4--3-3--66666666-55555--|
A|-3--2--1-0--66666666-55555--|
D|------------66666666-55555--|

Repeat the Chorus

Bridge:
KNOTS AND CROSSES SKEWS I FOLD IN TWO
e|-----------------------------------|
B|-4--------------8-------6----------|
G|-5--------------8-------7----------|
D|-5--------------8-------8----------|
A|-3--------------6-------5----------|
D|-----------------------------------|
Play that twice, the second time strum the chords up and down
YOU'VE LOST..CIALLY MEEEEEEEEEEEEEEEEEE
e|--------------------------|
B|--------------------------|
G|---------5----------------|
D|-6-------5-(x16)-5--------|
A|-6-(x16)-3-------5-(x32)--|
D|-6---------------5--------|

Last Chorus
e|------------------|----------------|
B|------------------|----------------|
G|-----5---8--4-----|-----5-------5--|
D|-6---5---8--4-5---|-6---5---5---5--|
A|-6---3---6--2-5---|-6---3---5---3--|
D|-6------------5---|-6-------5------|
play that  a few times but the last time don't play the last C chord and keep playing the G one.





Comments


Popular Versaemerge tabs & chords
Fire (Aim Your Arrows High) Bass Tabs
Past Praying For 1 Bass Tabs
Your Own Love 2 Bass Tabs
Lost Tree 3 Chords
Whisperer Chords
Consider The Sea Intro Tabs
Fixed At Zero (Acoustic) Tabs
Moments Between Sleep Tabs
Past Praying For 1 Tabs
Past Praying For Ukulele


Song lyrics



↑ Back to top | Tablatures and chords are parodies/interpretations of the original songs. You may use it for private study, scholarship, research or language learning purposes only
© 2014 AZChords.com Contact us | Privacy policy | DMCA | Add/correct tabs | Request tabs | Top 50 tabs