» » »

Versaemerge, Moments Between Sleep Bass tabs (ver.2)

Artists:  A B C D E F G H I J K L M N O P Q R S T U V W X Y Z # 

Moments Between Sleep Bass tabs (ver.2)

Versaemerge Tabs
 Rating:
4/5 (4 votes)
Moments Between Sleep lessons Tabs too difficult? Try these video lessons and learn fast
1
                -------------------------------------------------------------------------------
			     Moments Between Sleep - VersaEmerge
-------------------------------------------------------------------------------


The other tab is good, but this song is played on a 5-string.



Tuning: Standard 5-string  (BEADG) 


Intro x2

G|---------------------------------------|
D|---------------------------------------|
A|---------------------------------------|
E|---------88-8-8888-55-5-5555-55-5-5555-|
B|55-5-5555------------------------------|


Verse x4

G|-----------------|
D|-----------------|
A|---------------5-|
E|--------8-8-8-8--|
B|5-5-5-58---------|


Pre-Chorus x1

G|---------------------------|
D|---------------------------|
A|---------------------------|
E|8~------------8~-----------|
B|-------5~------------55555-|


Chorus x2

G|--------------------------------------|
D|--------------------------------------|
A|--------------------------------------|
E|--------7-7-777-8-8-8887-------10--10-|
B|5-5-5555-------8--------888888--------|

Intro x2


Verse

G|-----------------|
D|-----------------|
A|---------------5-|
E|--------8-8-8-8--| x2
B|5-5-5-58---------|

G|-----------------------------------------|
D|-----------------------------------------|
A|7----7-----------------------------------|
E|-8-10-8-----8-88-88-88-8--------88888888-| x1
B|-------5-7-8------------55555555---------|


Pre-Chorus x1

G|-----------------|
D|-----------------|
A|-----------------|
E|8~---------------|
B|-------55-5-5555-|

Chorus x4


Bridge x1  (This part is kind of tricky)

G|-------------------------------------------------------|
D|-------------------------------------------------------|
A|-------------------------------------------------------|
E|8-8-8-8-8-8-8-8-10-10-10-10-10-10-10-5-55-5555--5--777-|
B|-------------------------------------------------------|

Chorus x4
Intro x2


PEACE


| /  slide up
| \  slide down
| h  hammer-on
| p  pull-off
| ~  vibrato
| +  harmonic
| x  Mute note
===============================================================================
            
Submit corrections

comments powered by Disqus
↑ Back to top | Versaemerge Bass for Moments Between Sleep. Lyrics for acoustic guitar and electric guitar. 1 Tablatures and chords are parodies/interpretations of the original songs. You may use it for private study, scholarship, research or language learning purposes only