» » »

Versaemerge, Moments Between Sleep Bass tabs (ver.1)

Artists:  A B C D E F G H I J K L M N O P Q R S T U V W X Y Z # 

Moments Between Sleep Bass tabs (ver.1)

Versaemerge Tabs
 Rating:
4.2/5 (5 votes)
Moments Between Sleep lessons Tabs too difficult? Try these video lessons and learn fast
1
                -------------------------------------------------------------------------------
-------------------------------------------------------------------------------

Tuning: standard

Yeah, I don't have a five string so here it is on a four string.

Intro
G|----------------------------------|
D|----------------------------------|
A|---------33333333-0000000000000000|
E|00000000--------------------------|x2

Verse "here the season's don't exist."
G|------------------|
D|------------------|
A|---------3-3-3-35-|
E|0-0-0-03----------| x4

Pre-Chorus "Still I know..."
G|---------------------------|
D|---------------------------|
A|-3~----0~----3~---0000-0---|
E|---------------------------|

Chorus "We were all, so undone."
G|---------------------------------------|
D|---------------------------------------|
A|---------2222222--33333332-------5---5-|
E|00000000--------3----------33333-------|x2

Intro x1

Verse "In the city's callowness."
G|------------------|    
D|------------------|   
A|---------3-3-3-35-|    
E|0-0-0-03----------|x2  

G|----------------------------------------------|
D|2-----2---------------------------------------|
A|--3-5---3-------3-33-33-33-3----------33333333|
E| ---------0-2-3--------------00000000---------|

pre-chorus "still i know we speak."
G|--------------|
D|--------------|
A|3~---0000000-0|
E|--------------|

Chorus "We were all, so undone."
G|--------------------------------------|
D|--------------------------------------|
A|---------2222222--33333332-------5--5-|
E|00000000--------3----------33333------|x4

bridge "...i don't know..."
G|--------------------------------|
D|--------------------------------|
A|33333333-55555555-0-0-0-0-0-2222|
E|--------------------------------|

Chorus "We were all, so undone."
G|--------------------------------------|
D|--------------------------------------|
A|---------2222222--33333332-------55---|
E|00000000--------3----------33333------|x4

Intro x2
            
Submit corrections

comments powered by Disqus
↑ Back to top | Versaemerge Bass for Moments Between Sleep. Lyrics for acoustic guitar and electric guitar. 1 Tablatures and chords are parodies/interpretations of the original songs. You may use it for private study, scholarship, research or language learning purposes only