>
 >
Mind Reader

Mind Reader Guitar Tabs

Versaemerge - Mind Reader chords, tabs, tablatures, lyrics

Guitar lessons | Add/correct | Request | Top 50 tabs Artists:  A B C D E F G H I J K L M N O P Q R S T U V W X Y Z 0-9

Mind Reader Guitar Tabs – Versaemerge

CD, Sheet music, Poster

Do you like Mind Reader? Share with your friends now
ChordsChords v2TabsUkulele
============
============
Intro/Verses:
e|----------------------------------------------|
B|--888888888-8888888---------------------------|
G|--999999999-9999999-999999999-9-9-9-9-9-9-9---|
D|--xxxxxxxxx-xxxxxxx-777777777-9-9-9-9-9-9-9---|
A|--777777777-xxxxxxx-888888888-10101010101010--|
D|------------7777777---------------------------|

A second guitar plays this next riff everytime sierra sings "hey mind reader"
e|---------------------|
B|-12------------------|
G|----12---------------|
D|-------14------------|
A|----------14-10-(7)--|
D|---------------------|

Pre-Chorus: TO THROW THIS UP AND AAAWAAAAAAAYYY
(Strum these chords)
e|-----------------|
B|-----------------|
G|-----------------|
D|-3-------0---5---|
A|-3-------0---5---|
D|-3-------0---5---|

Chorus:
e|----------------------------------------------|
B|----------------------------------------------|
G|-99999999-1010101010101010--------------------|
D|-77777777-7-7-7-7-7-7-7-7---0000000000000000--|
A|-77777777-8-8-8-8-8-8-8-8---0000000000000000--|
D|-77777777-7-7-7-7-7-7-7-7---0000000000000000--| x2

Pre-Verse:
e|--------12-----12--|
B|-----13----13------|
G|--14---------14----|
D|-------------------|
A|-------------------|
D|-------------------| x3

Repeat everything form the verses to the pre-verse now for the bridge it goes like this:

Guitar 1:
e|------------------------|
B|------------------------|
G|--9v~--9v~--12v~--10v~--|
D|--10v~-9v~--10v~--12v~--|
A|------------------------|
D|------------------------|
Play that^ twice and now
"START SPEEAAKINNG SAY WHAT WE MEEAAAN NO
e|--------------------------------------------------------------|
B|--------------------------------------------------------------|
G|-9-9-9-9-9-9-9-9--99999999-1212121212121212-1010101010101010--|
D|-1010101010101010-99999999-1010101010101010-1212121212121212--|
A|--------------------------------------------------------------|
D|--------------------------------------------------------------|
LIES TUCKED IN BETWEEEN OOUR TEEEEEEETH
e|---------------------------|
B|---------------------------|
G|--10--------7------13------|
D|--X--(X16)--X-(X8)-X-(X7)--|
A|--8---------5------11------|
D|---------------------------|

Guitar 2:
"START SPEAAKIING SAAY WHAAT WEE MEEAAN
e|------------------------------------------------------|
B|------------------------------------------------------|
G|------------------------------------------------------|
D|------------------------------------------------------|
A|------------------------------------------------------|
D|-77777777-66666666-1010101010101010-1212121212121212--|

e|-----------------|
B|-----------------|
G|-----------------|
D|-3-------0-------|
A|-3-(x16)-0-(x15)-|
D|-3-------0-------|

Now right before the final chorus when the whole  band kicks in you play this chord
e|---|
B|---|
G|---|
D|-0-|
A|-0-|
D|-0-|

and then you repeat the chorus a bunch of times
then as an outro you play these 3 chords

e|-------|
B|-8-8-8-|
G|-9-9-9-|
D|-x-x-x-|
A|-7-x-8-|
D|---7---|

oooh in the first half of the bridge there's another quiet guitar that plays the 
a.k.a., this:
e|--------12-----12--|
B|-----13----13------|
G|--14---------14----|
D|-------------------|
A|-------------------|
D|-------------------|
and when it goes START SPEEAAAKIING SAAY WHAAAT WEE MEEAN it stops playing :D





Comments


Popular Versaemerge tabs & chords
In Pursuing Design 1 Bass Tabs
Neon Bass Tabs
Whisperer Bass Tabs
American Boy Chords
Lost Tree 3 Chords
Past Praying For Chords
The Authors Chords
Amercian Boy Tabs
Ennui Tabs
Fire Aim Your Arrows High Ukulele


Song lyrics



↑ Back to top | Tablatures and chords are parodies/interpretations of the original songs. You may use it for private study, scholarship, research or language learning purposes only
© 2014 AZChords.com Contact us | Privacy policy | DMCA | Add/correct tabs | Request tabs | Top 50 tabs