>
 >
Lost Tree 1

Lost Tree 1 Guitar Tabs

Versaemerge - Lost Tree 1 chords, tabs, tablatures, lyrics

Guitar lessons | Add/correct | Request | Top 50 tabs Artists:  A B C D E F G H I J K L M N O P Q R S T U V W X Y Z 0-9

Lost Tree 1 Guitar Tabs – Versaemerge

CD, Sheet music, Poster

Do you like Lost Tree 1? Share with your friends now
ChordsChords v2Chords v3Chords v4TabsTabs v2Ukulele
This is my first tab. It is very accurate.
I tab everything by ear and watching videos of them performing the song.
I'll be doing a lot of VersaEmerge tabs, since there aren't a lot of them.

Listen to the song to figure out the strumming. These are only the fingerings
and they are only main parts of the song.
If I can figure out any lead guitar parts, I'll post them.


Lost Tree by VersaEmerge


Intro:
|-------|
|-------|
|7------|
|7--12--|
|5--8---|
|x--8---|


Verse 1:
|------------------------------|
|------------------------------|
|7-----------------------------|
|7----------------------12-----|
|5----------------------8------|
|x----------------------8------|  x2

Their arms, they reach, they branch like they're trying to catch me. They stand so tirelessly.
Outgrown the sides of roads, all mixed in gold, the summer has me, the summer has me sold.
I see the hints just picture it, craving to witness. But we blinked and missed it.
Beg to the sky, long days and old nights. Beg to the sky, long days and old nights.


Chorus:
|---------------------------------------------------------------------------|
|---------------------------------------------------------------------------|
|---------------------------------------------------------------------------|
|3~-----------1~----------5~------1~---------------5~----------------1~-----|
|3~-----------1~----------5~------1~---------------5~----------------1~-----|
|3~-----------1~----------5~------1~---------------5~----------------1~-----|

Here we are, rooted deep. Looking up, so sunsweet. Until the fall we lose it
all. Here we are.

(Repeat Intro x1)


Verse 1:
|------------------------------|
|------------------------------|
|7-----------------------------|
|7----------------------12-----|
|5----------------------8------|
|x----------------------8------|  x2

Thin and bare, stuck in a stiff stare, I wait up in the air, that makes it all fair.
We stop and grow, and stop and grow. We coexist, flourished, and sunkissed.
Anything you'd like, your back road eyes, they're gettin' dry, and unnatural smile.
You're lost in this place, I see it in your face. Lost in this place, I see it in your face.


Chorus:
|---------------------------------------------------------------------------|
|---------------------------------------------------------------------------|
|---------------------------------------------------------------------------|
|3~-----------1~----------5~------1~---------------5~----------------1~-----|
|3~-----------1~----------5~------1~---------------5~----------------1~-----|
|3~-----------1~----------5~------1~---------------5~----------------1~-----|

Here we are, rooted deep. Looking up, so sunsweet. Until the fall we lose it
all, here we are.


(Repeat Intro x3)

Outro:
|x--x---|
|x--x---|
|x--3---|
|0--3---|
|0--1---|
|0------| Repeat x13 through. Lyrics from the rest of the album start on the second 
of the 4th repeat.
If you've heard the song, you know what that means.





Comments


Popular Versaemerge tabs & chords
Redesign Me Bass Tabs
Moments Between Sleep 1 Chords
Fixed At Zero 1 Tabs
Stranger Tabs
American Boy Ukulele
Blank Static Screen Ukulele
Figure It Out Ukulele
Figure It Out 2 Ukulele
Find Your Love Drake Cover Ukulele
Fire Aim Your Arrows High Ukulele


Song lyrics



↑ Back to top | Tablatures and chords are parodies/interpretations of the original songs. You may use it for private study, scholarship, research or language learning purposes only
© 2014 AZChords.com Contact us | Privacy policy | DMCA | Add/correct tabs | Request tabs | Top 50 tabs