» » »

Lost Tree Tabs (ver.1)

Artists:  A B C D E F G H I J K L M N O P Q R S T U V W X Y Z # 

Lost Tree Tabs (ver.1)

Versaemerge
Rating:
1/5 (1 vote)

Hard to play? Try these video lessons and learn fast.
                =========
=========

I want to thank Lauren, a friend of mine for tabbing the first half of the song
the tapping part), she's pretty badass and here's a video of her playing it, check it 
and
her a few likes, oh the video might also help you to learn the tapping part.

Verses:
Listen to the song to get the strumming and all
e|-2--0--1-|
B|-3--3--3-|
G|-2--2--3-|
D|-0--0--3-|
A|-------1-|
D|---------|

Chorus:
"Here we are, rooted deep..."
E|---------------------------------------|
B|---------------------------------------|
G|------(0)------------(0)-----------(0)-|
D|-3-----1--------8-----1--------8----1--|
A|-3-----1--------5-----1--------5----1--|
D|-3-----1--------5-----1--------5----1--|

Use that till you get to the tapping part
The verse chords are playing in the background while you play this

   T        T     T       T   T    T  T
E|-14/17p10-12/13------------------10---------|
B|----------------10/11p7-----10p7----10/11p7-|
G|------------------------9p7-----------------| x2
D|--------------------------------------------|
A|--------------------------------------------|
D|--------------------------------------------|

   T       T    T          T    T       T          T       T    T    T       T    T
E|-10/12p6-13p6-12/13/15p6-12p6-10/12p6-10/12/13p6-12/13p6-15p6-12p6-10/12p6-13p6-10/12-|
B|--------------------------------------------------------------------------------------|
G|--------------------------------------------------------------------------------------|
D|--------------------------------------------------------------------------------------|
A|--------------------------------------------------------------------------------------|
D|--------------------------------------------------------------------------------------|

and when it all explodes guitar 1 plays these chords

e|--------|
B|--------|
G|-7------|
D|-7--8---|
A|-5--8---|
D|-0--8---|

Guitar 2 plays these

(i try to bend these chords just a little to add an even moar epic sound)
e|--------------------------|
B|--------------------------|
G|-13--13--13-14--11-11-11--|
D|-x---x---x--x---x--x--x---|
A|-11--11--11-12--9--9--9---|
D|--------------------------|

e|------------------------------|
B|------------------------------|
G|-13--13--13-14--11-1111-9-9---|
D|-x---x---x--x---x--x-x--X-X---|
A|-11--11--11-12--9--9-9--7-7---|
D|------------------------------|

e|----------------------|
B|----------------------|
G|-9--9--9-10--7--7--7--|
D|-X--X--X-X---X--X--X--|
A|-7--7--7-8---5--5--5--|
D|----------------------|

e|----------------------|
B|----------------------|
G|-9--9--9-10--7--7--7--|
D|-X--X--X-X---X--X--X--|
A|-7--7--7-8---5--5--5--|
D|----------------------|

Guitar 1 and guitar 2 keep playing that for the rest of the song
now the guitar that makes it's own mess is guitar 3 it kind of goes like this
listen closely
Guitar 3
In the first repeat of the outro it goes like

e|-----------------------------------------------------------|
B|--10-(X16)-11(X8)-13(X8)-10/11-11(X14)-10(X8)-8(X4)-11(X4)-|
G|-----------------------------------------------------------|
D|-----------------------------------------------------------|
A|-----------------------------------------------------------|
D|-----------------------------------------------------------|
         T     T        T        T
e|------------------------------------|
B|-10~---15p10-15/17p10-17/18p10-18---|
G|------------------------------------|
D|------------------------------------|
A|------------------------------------|
D|------------------------------------|

e|---------------------------------|
B|-15p10-11(X16)-13(x3)--15(x3)----|
G|---------------------------------|
D|---------------------------------|
A|---------------------------------|
D|---------------------------------|
THE TIME I'M... WHERE I'VE BEEEENN
e|---------------------------------10(X4)--------10(X4)---|
B|-10~----------------------11(X12)-------11(X12)---------|
G|--------------------------------------------------------|
D|--------------------------------------------------------|
A|--------------------------------------------------------|
D|--------------------------------------------------------|
HEY MIND READER.... GET WAY
e|------------------------------------------------------------------|
B|-10(XAFEWTMES)-----------11(X16)-13(X4)-15(X4)-17(X4)-19(X4)------|
G|------------------------------------------------------------------|
D|------------------------------------- ----------------------------|
A|------------------------------------------------------------------|
D|------------------------------------------------------------------|
STRANGER I KNOW SO WELL DON'T LET ME... GET A+WAY
e|--------------------------------------------------------|
B|-19(xabunchoftimes)---19^19^19^19^19^---------18(x16)---|
G|--------------------------------------------------------|
D|--------------------------------------------------------|
A|--------------------------------------------------------|
D|--------------------------------------------------------|
BLAME IT ON THE TELEVISION----LOOOVE
e|-----------------------------------------------------------------------|
B|-17~--15~--13~--10(x32)-11111111---11----11---11--------11----11--11---|
G|-----------------------------------------------------------------------|
D|---------------------------------12---12~---12---12~--12--12---12------|
A|-----------------------------------------------------------------------|
D|-----------------------------------------------------------------------|
PULLING I'M PUSHING....FATHER SKYY...................SO WHY DON'T WE JUST QUIT
e|-------------------------------------------------------------------------------------|
B|--10-(X32)-11(X12)----------13131515 15\13-13-13\11-11\10-10\8-10/11-11/13-13/15-15~-|
G|-------------------------------------------------------------------------------------|
D|-------------------------------------------------------------------------------------|
A|-------------------------------------------------------------------------------------|
D|-------------------------------------------------------------------------------------|
DONT..GET AWAY
e|-------14-----------14-14--14-14--16--16--14-17----|
B|-15(x6)--15515151515-15--15-----15--15-------------|
G|---------------------------------------------------|
D|---------------------------------------------------|
A|---------------------------------------------------|
D|---------------------------------------------------|

lol the rest is so messy i'm gonna leave it like this, actually i don't know why would
learn this bit, just play along with it and create some bad ass stuff, it'll probably
moar epic it depends and it's not like this is too clear to hear and tab so just have 
with the notes i gave you already.
            
Hard to play? Try these video lessons and learn fast. | Correct




comments powered by Disqus
↑ Back to top | Tablatures and chords are parodies/interpretations of the original songs. You may use it for private study, scholarship, research or language learning purposes only