>
 >
Fire (Aim Your Arrows High)

Fire (Aim Your Arrows High) Guitar Tabs

Versaemerge - Fire (Aim Your Arrows High) chords, tabs, tablatures, lyrics

Guitar lessons | Add/correct | Request | Top 50 tabs Artists:  A B C D E F G H I J K L M N O P Q R S T U V W X Y Z 0-9

Fire (Aim Your Arrows High) Guitar Tabs – Versaemerge

CD, Sheet music, Poster

Do you like Fire (Aim Your Arrows High)? Share with your friends now
Bass TabsChordsTabs
===========================
===========================

Intro:
Guitar 1:

e|---------------------------------|
B|---------5-------5------8--------|
G|---------6-(x16)-5-(x8)-8-(x8)---|
D|-2-------6-------5------8--------|
A|-2-(x32)-4-------3------6--------|
D|-2-------------------------------|

Guitar 2:
e|--------------------------------------------------------------|
B|--------------------------------------------------------------|
G|-12-11-12-11-12~--12-11-12--121211-/16\11-9~-/11\5--88888888--|
D|--------------------------------------------------------------|
A|--------------------------------------------------------------|
D|--------------------------------------------------------------|

Verse:
Here you strike just once these chords
e|---------|
B|-0--5--5-| X2
G|-0--5--6-|
D|-2--5--6-|
A|-2--3--4-|
D|-2-------|
THEN play the same chords but this time strum them 
e|-------------------------|
B|-0------5-------5--------| X2
G|-0------5(x10)--6--------|
D|-2(x10)-5-------6-(x20)--|
A|-2------3-------4--------|
D|-2-----------------------|

Guitar 2 plays this:
"OUR TIME'S ALMOST RUNNING OUT"
e|---------|
B|---------|
G|-/11\9~--|
D|---------|
A|---------|
D|---------|


Chorus numbah 1:
e|-------------------------|
B|---------5-------5-------|
G|---------6-(x16)-5-(x16)-|
D|-2-------6-------5-------|
A|-2-(x32)-4-------3-------|
D|-2-----------------------|

e|---------------------------------|
B|---------5-------5------8--------|
G|---------6-(x16)-5-(x8)-8-(x8)---|
D|-2-------6-------5------8--------|
A|-2-(x32)-4-------3------6--------|
D|-2-------------------------------|

Second Verse:
This out of our control
e|-------------|
B|---------0---|
G|-----0-----0-|
D|---5---5-----|
A|-4-----------|
D|-------------|
then

e|---------0-----------------------------------------|
B|-----0-----0----------0-----------0-----------0----|
G|------------------0-----0-----0-----0-----0-----0--|
D|---5---5--------5---5-------5---5-------5---5------|
A|-7-----------3------------4-----------4------------|
D|---------------------------------------------------|
(repeat this^ as needed)

Guitar 2:
our controool:
e|---------|
B|---------|
G|-/11\9~--|
D|---------|
A|---------|
D|---------|

Repeat the Chorus and then go to the bridge that goes like:

Guitar 1
Listen to the song to figure the strumming out, these are the chords

e|-----------|
B|-5--7-8--7-|
G|-5--7-9--7-|
D|-5--7-9--7-|
A|-3--5-7--5-|
D|-----------|
_________YES WE'RE HEXED
e|------------|
B|-1-------4--|
G|-2-------4--|
D|-2-------4--|
A|-0-------2--|
D|------------|

Guitar 2
e|---------------------------------------------------|
B|---------------------------------------------------|
G|-5-------7777-9-------10101010-14--------16--------|
D|-x-(x28)-xxxx-x-(x28)-x-x-x-x--x--(x32)--x--(x16)--| STOP
A|-3-------5555-7-------9-9-9-9--12--------14--------|
D|---------------------------------------------------|



Now play the chorus again once

Outro:
Guitar 1 plays the same chords from the chorus

Guitar 2: plays this
e|-15-14-15-14-15---15-14-15--151514-/19\14-12~/14\8~--|
B|-x--x--x--x--x----x--x--x---x-x-x---x--x--x---x--x~--|
G|-12-11-12-11-12~--12-11-12--121211-/16\11-9~-/11\5~--|
D|-----------------------------------------------------|
A|-----------------------------------------------------|
D|-----------------------------------------------------|

e|-15-14-15-14-15---15-14-15--151514-/19\14-12~/14\8--1111111111111111--|
B|-x--x--x--x--x----x--x--x---x-x-x---x--x--x---x--x--x-x-x-x-x-x-x-x---|
G|-12-11-12-11-12~--12-11-12--121211-/16\11-9~-/11\5--8-8-8-8-8-8-8-8---|
D|----------------------------------------------------------------------|
A|----------------------------------------------------------------------|
D|----------------------------------------------------------------------|

That's it, i'm obviously not tabbing the interlude thingy.





Comments


Popular Versaemerge tabs & chords
In Pursuing Design Chords
Lost Tree 1 Chords
The Authors Chords
Toxic Chords
Fixed At Zero (Acoustic) Tabs
Lost Tree 1 Tabs
The Hider Intro Tabs
Fixed At Zero 2 Ukulele
In Pursuing Design Ukulele
The Hider Ukulele


Song lyrics



↑ Back to top | Tablatures and chords are parodies/interpretations of the original songs. You may use it for private study, scholarship, research or language learning purposes only
© 2014 AZChords.com Contact us | Privacy policy | DMCA | Add/correct tabs | Request tabs | Top 50 tabs