>
 >
Figure It Out

Figure It Out Guitar Tabs

Versaemerge - Figure It Out chords, tabs, tablatures, lyrics

Guitar lessons | Add/correct | Request | Top 50 tabs Artists:  A B C D E F G H I J K L M N O P Q R S T U V W X Y Z 0-9

Figure It Out Guitar Tabs – Versaemerge

CD, Sheet music, Poster

Do you like Figure It Out? Share with your friends now
Bass TabsBass Tabs v2ChordsChords v2TabsUkuleleUkulele v2
==============
Figure it out
==============

This song has no lead guitar parts so here are the chords

Intro: clean guitar
e|--55555555-8--44444444-|
B|--66666666-10-66666666-|
G|--77777777-10-66666666-|
D|--77777777-10-66666666-|
A|--55555555-8--44444444-|
D|-----------------------|

Verses: with distortion (a second guitar plays the full chords from the intro)
e|-----------------------|
B|-----------------------|
G|--77777777-10-66666666-|
D|--77777777-10-66666666-|
A|--55555555-8--44444444-|
D|-----------------------|

Pre-Chorus:

e|------------------|
B|------------------|
G|-5555555555555555-|
D|-5555555555555555-|
A|-3333333333333333-|
D|------------------|
PM         ........

Chorus: (if you know them you can play the full chords instead of the powerchords but in 
album version they play them like thiks)

e|-------------------------------------------------------|
B|-------------------------------------------------------|
G|-44444-------------77776666-99999999-1212121212121212--|
D|-44444-44444-55555-77777777-99999999-1212121212121212--|
A|-22222-44444-55555-55554555-77777777-1010101010101010--|
D|-------44444-55555-------------------------------------|
The last chords are number 10's, 12's and 11's, you can play the 11's if you want
e|-------------------------------------------------------|
B|--------------------------------------------(11111111)-|
G|-44444-------------77776666-99999999-1212121212121212--|
D|-44444-44444-55555-77777777-99999999-1212121212121212--|
A|-22222-44444-55555-55554555-77777777-1010101010101010--|
D|-------44444-55555-------------------------------------|

Now repeat it all and then go to the bridge

Bridge:
idk about the strumming pattern, just listen to the song. but here are the chords.
e|-------------------|
B|-------------------|
G|-------------------|
D|-0-3-2-5--0-3-2-1--|
A|-0-3-2-5--0-3-2-1--|
D|-0-3-2-5--0-3-2-1--|

WHYY CAN'T YOUUUUUUUU...
e|-------|
B|-------|
G|-------|
D|-0-2-1-|
A|-0-2-1-|
D|-0-2-1-|

WITH A TWIIIIIIIIST
e|------------------|
B|------------------|
G|-7777777766666666-|
D|-7777777766666666-|
A|-5555555544444444-|
D|------------------|
YOUU SAAAYYYY THAAT IIIII FOOOOOR
e|------------------|
B|------------------|
G|-7777777766666666-|
D|-7777777766666666-|
A|-5555555544444444-|
D|------------------|

e|-----------------|
B|-----------------|
G|-55555555x-------|
D|-55555555x11111--|
A|-33333333x11111--|
D|---------x11111--|

Repeat the chorus like 2 times idr

and you end with a Dm chord.

___________________________________________________________________


Now there are actually some lead parts on the bridge and i tried my best so here's what 
got


e|---------------------------------|
B|--7-----7-6-----6-5-----5-4------|
G|----7-------7-------5-------5----|
D|------9-------7-------6-------5--|
A|---------------------------------|
D|---------------------------------|
Twice
then

e|---------------------------|
B|-10------10-9-------8------|
G|----10-7------7-9-7---8----|
D|------------------------8--|
A|---------------------------|
D|---------------------------|





Comments


Popular Versaemerge tabs & chords
Moments Between Sleep 1 Bass Tabs
Fire (Aim Your Arrows High) Chords
Fixed At Zero 1 Chords
In Pursuing Design Chords
Moments Between Sleep Chords
Fire (Aim Your Arrows High) Tabs
Stranger Tabs
American Boy Ukulele
Et Ukulele
The Authors Ukulele


Song lyrics



↑ Back to top | Tablatures and chords are parodies/interpretations of the original songs. You may use it for private study, scholarship, research or language learning purposes only
© 2014 AZChords.com Contact us | Privacy policy | DMCA | Add/correct tabs | Request tabs | Top 50 tabs