>
 >
Et

Et Guitar Tabs

Versaemerge - Et chords, tabs, tablatures, lyrics

Guitar lessons | Add/correct | Request | Top 50 tabs Artists:  A B C D E F G H I J K L M N O P Q R S T U V W X Y Z 0-9

Et Guitar Tabs – Versaemerge

CD, Sheet music, Poster

Do you like Et? Share with your friends now
ChordsTabsUkulele
Verse 1 (x8)

e|---------------------|
B|-------------8-------|
G|---9-----9---9-------|
D|------9------9-------|
A|-7-------------------|
E|---------------------|

(x8)
e|----------------------|
B|-------------8--------|
G|-------------9--------|
D|-9--9--9--9--9--------|
A|-7--7--7--7--7--------|
E|----------------------|

e|-----3----|----5----|----0---0--0-----|
B|------3-3-|-----5-5-|-----5---5--5----|
G|--5----5--|--7---7--|--5--------------|
D|---5------|---7-----|---5--5---5--5---|
A|-3--------|-5-------|-0---------------|
E|----------|---------|-----------------|

e|----3----|----5----|-0-0-0-0-0-0-0-0---|
B|-----3-3-|-----5-5-|-0-0-0-0-0-0-0-0---|
G|--5---5--|--7---7--|-5-5-5-5-5-5-5-5---|
D|---5-----|---5-----|-5-5-5-5-5-5-5-5---|
A|-3-------|-5-------|-0-0-0-0-0-0-0-0---|
E|---------|---------|-------------------|

Chorus 1 (x4)

e|-x--x--x-------|
B|-x--x--8-------|
G|-5--7--9-------|
D|-5--7--9-------|
A|-3--5--7-------|
E|-3--5--7-------|


Transtion (x2)
e|---------------------------|
B|-------------8-------------|
G|-------------9-------------|
D|-9--9--9--9--9--slide------|
A|-7--7--7--7--7--slide------|
E|---------------------------|

Verse 2(x8)
e|----------------------|
B|-------------8--------|
G|-------------9--------|
D|-9--9--9--9--9--------|
A|-7--7--7--7--7--------|
E|----------------------|

e|-----3----|----5----|----0---0--0-----|
B|------3-3-|-----5-5-|-----5---5--5----|
G|--5----5--|--7---7--|--5--------------|
D|---5------|---7-----|---5--5---5--5---|
A|-3--------|-5-------|-0---------------|
D|----------|---------|-----------------|

e|----3----|----5----|-0-0-0-0-0-5-5-5---|
B|-----3-3-|-----5-5-|-0-0-0-0-0-5-5-5---|
G|--5---5--|--7---7--|-5-5-5-5-5-5-5-5---|
D|---5-----|---5-----|-5-5-5-5-5-5-5-5---|
A|-3-------|-5-------|-0-0-0-0-0-0-0-0---|
D|---------|---------|-------------------|

Chorus 2 (x4)
e|-x--x--x-------|
B|-x--x--8-------|
G|-5--7--9-------|
D|-5--7--9-------|
A|-3--5--7-------|
D|-3--5--7-------|

Bridge
e|-----3--|-----5--|--------|-5--
B|-----3--|-----5--|-----8--|-5--
G|--5--5--|--7--7--|--9--9--|-7--
D|---5----|---7----|---9----|-7--
A|-3------|-5------|-7------|-5--
D|--------|--------|--------|----

e|-----3--|-----5--|--------|-5-5-555--|
B|-----3--|-----5--|-----8--|-5-5-555--|
G|--5--5--|--7--7--|--9--9--|-7-7-777--|
D|---5----|---7----|---9----|-7-7-777--|
A|-3------|-5------|-7------|-5-5-555--|
D|--------|--------|--------|----------|

Chorus 3 (x4)
e|-x--x--x-------|
B|-x--x--8-------|
G|-5--7--9-------|
D|-5--7--9-------|
A|-3--5--7-------|
D|-3--5--7-------|





Comments


Popular Versaemerge tabs & chords
Figure It Out Bass Tabs
Moments Between Sleep 1 Bass Tabs
Whisperer Bass Tabs
Fixed At Zero (Acoustic) Chords
In Pursuing Design Chords
Past Praying For Chords
The Hider Chords
Amercian Boy Tabs
Fixed At Zero 3 Tabs
Youll Never Know Ukulele


Song lyrics



↑ Back to top | Tablatures and chords are parodies/interpretations of the original songs. You may use it for private study, scholarship, research or language learning purposes only
© 2014 AZChords.com Contact us | Privacy policy | DMCA | Add/correct tabs | Request tabs | Top 50 tabs