>
 >
Ennui

Ennui Guitar Tabs

Versaemerge - Ennui chords, tabs, tablatures, lyrics

Guitar lessons | Add/correct | Request | Top 50 tabs Artists:  A B C D E F G H I J K L M N O P Q R S T U V W X Y Z 0-9

Ennui Guitar Tabs – Versaemerge

CD, Sheet music, Poster

Do you like Ennui? Share with your friends now
Tabs
Band: VersaEmerge

Tuning: Standard

This is a tab for the song "Ennui" off of VersaEmerge's first EP, "Cities Built On 
This EP was with the band's original vocalist, Spencer Pearson. I tabbed the song in Standard 
I am sure it is played in Drop D; I simply found it to sound better when played in Standard.
Please check the song out and play along to hear where current parts go or to get a 
idea of how the song is played. Please contact me with any issues, questions, or comments!
Thanks, Matt

Intro
Guitar 1
* 075700 x54700  can be  075000 x54000
e|---0~---0~---0~---0~------0~---0~---0~-------------|
B|---0~---0~---0~---3~------0~---0~---0~-------------|
G|---7~---7~---4~---0~------7~---7~---4~-------------|
D|---5~---4~---5~---4~------5~---4~---5~-------------|
A|---7~---5~---3~---5~------7~---5~---3~-------------|
E|---0----------------------0------------------------|

Guitar 2
e|--------------------------0~---0~---0~--------------|
B|--------------------------7~---7~---7~--------------|
G|--------------------------0~---0~---0~--------------|
D|--------------------------0~---0~---0~--------------|
A|--------------------------7~---5~---x~--------------|
E|------------------------------------8~--------------|

Verse 1
Guitar 1
Hard to make out
e|--------------------------|
B|--------------------------|
G|---4444-444---4444-444----|
D|---4444-444---4444-444----|
A|---0222-022---0222-022----|
E|--------------------------|

Guitar 2
e|------------------------------|---0-------|
B|-----3-5--0-3-5---3-5--0-3-5--|---5-------|
G|---4------------4-------------|---8-------|
D|------------------------------|-----------|
A|------------------------------|-----------|
E|------------------------------|-----------|
                                 *quick fill heard when this part comes in
                                  "I only wish we could recover..."
**play the fill w/ a slight bend; either guitar could play this.

Prechorus
Either way works
() optional note
e|--------------|-------------------------|
B|--------------|-------------------------|
G|---5---7---4--|-------------------------|
D|---5---7---4--|---10--12--9-------------|
A|---3---5---2--|--(10)(12)(9)------------|
E|--------------|---8---10--7-------------|

Chorus
Guitar 1
e|---0---0---0---------|
B|---3---3---0---------|
G|---0---0---7---------|
D|---0---4---5---------|
A|---3---5---7---------|
E|---------------------|
"And I only wish there was a way..."

Guitar 2 (2x)
e|---15-14----------------------------------------------------------------------|
B|---------15-13----------------------------------------------------------------|
G|--------------16-16h17p16-14---------------14--16-14--14----------------------|
D|----------------------------17p16-14h16-17----------17--16--16h17p16-14--14~--|
A|-----------------------------------------------------------------------17-----|
E|------------------------------------------------------------------------------|

Interlude
Guitar 1
e|--------------------------------------|
B|--------------------------------------|
G|-----4--4--4--------4--4--4--4--------|
D|----5--5--5--5-----5--5--5--5---------|
A|---0--0--0--0-0-2-3--3--3--3----------|
E|--------------------------------------|


Guitar 2
-comes in after chorus.. you mostly hear keys
Sounds a bit bluesy
e|--------------------------------------------------------------------------|
B|--------------------------------------------------------------------------|
G|--------------------------------------------------------------------------|
D|--------------14~-17p16p14~---12------------------------------------------|
A|---12h14-14h17------------------12-14~------------------------------------|
E|--------------------------------------------------------------------------|

Verse 2
Guitar 1
-there really isnt a guitar part here but this works
e|-----------------------|
B|---3~---3~---3~--------|
G|---0~---0~---0~--------|
D|---x~---2~---0~--------|
A|---2~---0~---3~--------|
E|---0~------------------|
"tirelessly fighting for this..."

Guitar 2
e|---0~---5~---5~---3~------------|
B|---8~---7~---5~---3~------------|
G|---9~---------------------------|
D|--------------------------------|
A|--------------------------------|
E|--------------------------------|
"tirelessly fighting for this..."

Guitar 1
-can play the same chords

Guitar 2
-repeated throught
e|---15p14------------------------------|
B|--------15-----15-17-----15-----------|
G|----------14-16-----14-16-------------|
D|--------------------------------------|
A|--------------------------------------|
E|--------------------------------------|

after "perpetual..." both guitars:
Guitar 1
e|--------------------|
B|---3---3---3--------|
G|---0---2---0--------|
D|---x---0---0--------|
A|---2-------3--------|
E|---0----------------|

Guitar 2
e|--------------|
B|--------------|
G|---9----11----|
D|-----12-------|
A|--------------|
E|--------------|

Guitar 1
e|---0---0---0-------------|
B|---0---0---0-------------|
G|---7---7---4-------------|
D|---5---5---5-------------|
A|---7---0---3-------------|
E|---0--(5)----------------|
"indecision..."

Guitar 2
*make this a full bend
e|---15p14p12---12-12-14-14--15p14p12-------------------------------------|
B|-----------15---15-15-15-15--------15-12b12b12b-------------------------|
G|--------------------------------------14b14b14b-------------------------|
D|-------------------------------------------------14-12-16-17p16-14-12-14|
A|------------------------------------------------------------------------|
E|------------------------------------------------------------------------|

when they get to the part where he sings "pendulum..."
Guitar 1
Palm Mute w/ a quick constant strums repeatedly
e|------------------|
B|------------------|
G|--(7)-------------|
D|---5--------------|
A|---7--------------|
E|---0--------------|
PM.............

Guitar 2
e|-----------------------|
B|-----------------------|
G|-----------------------|
D|---22-222-22-----------|
A|---22-222-22-----------|
E|---00-000-00-----------|

Breakdown
Guitar 1
e|----------------------------|
B|----------------------------|
G|----------------------------|
D|---22---22---2222-----------|
A|---22---22---2222-----------|
E|---00---00---0000-----------|

Guitar 2
this is play rather quickly inbetween the Em chord G1 plays
*you play the open G string at the same time as the notes on D
e|----------------------------------|
B|----------------------------------|
G|----------------------------------|
D|---5p4p0h4-7-5-4-0-2--------------|
A|----------------------------------|
E|----------------------------------|

Chorus
*on the second time of the Chorus the strum pattern changes not the notes

Bridge
Guitar 1
e|---0---0---0--------------|
B|---3---3---0--------------|
G|---0---0---7--------------|
D|---0---4---5--------------|
A|---3---5---7--------------|
E|--------------------------|

Guitar 2
e|---10-8-7----10-8-7----10-8-7----10-8-7--------|
B|---------8-7-------8-7-------8-7-------8-7-----|
G|------------7---------7---------7---------7----|
D|-----------------------------------------------|
A|-----------------------------------------------|
E|-----------------------------------------------|

Guitar 2 cont.
e|---15-14---------15-14--------15-14----------------------------|
B|--------15------------15-----------15------------15------------|
G|-----------17-16--------17-16--------17-16--16-17--17-16--16~--|
D|----------------17-----------17-----------17------------17-----|
A|---------------------------------------------------------------|
E|---------------------------------------------------------------|

Outro
Guitar 1
e|--------------|--------------------------|
B|---8~---------|-----7h8p7----------------|
G|---0~---------|--7-9-----9---------------|
D|--------------|--------------------------|
A|--------------|--------------------------|
E|--------------|--------------------------|
          *repeat
Guitar 2
e|---------14~--|--------14h15p14----------|
B|-----12-------|---12-15--------15--------|
G|---12--12-----|-12-----------------------|
D|--------------|--------------------------|
A|--------------|--------------------------|
E|--------------|--------------------------|
                 *repeat

End on:
Guitar 1
e|---0~----------------|
B|---8~----------------|
G|---9~----------------|
D|---------------------|
A|---------------------|
E|---------------------|

Guitar 2
e|---0~---------------|
B|---0~---------------|
G|---12~--------------|
D|---14~--------------|
A|--------------------|
E|--------------------|





Comments


Popular Versaemerge tabs & chords
In Pursuing Design 1 Bass Tabs
The Hider Bass Tabs
Moments Between Sleep 2 Chords
Amercian Boy Tabs
Fixed At Zero Tabs
Fixed At Zero 3 Tabs
Mythology Tabs
Clocks Ukulele
Moments Between Sleep Ukulele
Stranger Ukulele


Song lyrics



↑ Back to top | Tablatures and chords are parodies/interpretations of the original songs. You may use it for private study, scholarship, research or language learning purposes only
© 2014 AZChords.com Contact us | Privacy policy | DMCA | Add/correct tabs | Request tabs | Top 50 tabs