>
 >
Clocks

Clocks Bass Tabs

Versaemerge - Clocks chords, tabs, tablatures, lyrics

Guitar lessons | Add/correct | Request | Top 50 tabs Artists:  A B C D E F G H I J K L M N O P Q R S T U V W X Y Z 0-9

Clocks Bass Tabs – Versaemerge

CD, Sheet music, Poster

Do you like Clocks? Share with your friends now
Bass TabsChordsUkulele
-----------------------------------------------------------------------------
-----------------------------------------------------------------------------

Note: This is the version of Clocks that's off the Perceptions EP.
Tuning: Drop D

Intro
G|-----------------------------------------------------------------------|
D|--------------------------------------------------------2h3-0----------|
A|0000000000000000----------------------------------------------3h5------|
D|-----------------2222222222223333-000000000000-33333333-----------2-3-5|  

Verse "Since that clocks first tick"
G|------------------------------------------|
D|------------------------------------------|
A|0~-------0~---2h3--0~----------------0~---|
D|-----3~--------------------3~-------------|

Pre-Chorus "As the stars fall"
G|-----------------------------------------------|
D|-----------------------------------------------|
A|0000000000000000-------------------------------|
D|-----------------3333333333333333-000000000000-|

"their prayers..."
G|------4h5---------------|
D|5h7-0----0-2h3-0--------|
A|-----------------35-----|
D|--------------------235-|

Chorus "Look at us shake the sky"
G|-----------------------------------------------------------------------|
D|--------------------------------------------------------2h3-0----------|
A|0000000000000000----------------------------------------------3h5------|
D|-----------------2222222222223333-000000000000-33333333-----------2-3-5|x2

Verse "Can't awake the ones who live.."
G|-------------------------------------|
D|-------------------------------------|
A|0000-0-------------------------------|
D|-------5-555-7777-3333-3-3-00-0-00-0-|x2

pre-chorus "but your starry eyes.."
G|------------------------------------------------------------------------|
D|------------------------------------------------------------------------|
A|------------------------------------------------------------------------|
D|33-3-3-33-3-3-33-55-5-5-55-5-5-22222222222-0000000000000000-33-33-33-33-|

chorus x2

bridge right after chorus
G|------------------------|
D|------------------------|
A|------------------------|
D|7~---5~--7~---3~---6~---|

"I swear I felt you crawling under my skin"
G|-------------------------------------------------------------------|
D|-------------------------------------------------------------------|
A|-------------------------------------------------------------------|
D|0000000002222222233333333366666667777777755557777-3333333366666666-|

"towers won't fit our view"
G|-------------------------------------------------------------------|
D|-------------------------------------------------------------------|
A|--------------------------------00000000022222222333333335555------|
D|00-0000-22-2222-33-333336666666--------------------------------00-0|

outro
G|------------------------------------------------------------------------------|
D|------------------------------------------------------------------------------|
A|------------------------------------------------------------------------------|
D|333333333333333333-0000000000000000-7777777777777777-5555555555555555-3333333-|

"as we sleep we walk..."
G|-------------------------------------------------------------------|
D|2h3-0--------------------------------------------------------------|
A|------3h5----------------------------------------------------------|
D|----------235-0000000000005555-7777777777777777-5555555555555777-3~|





Comments


Popular Versaemerge tabs & chords
Figure It Out Bass Tabs
Moments Between Sleep Bass Tabs
Redesign Me Bass Tabs
Lost Tree 2 Chords
Mythology Chords
You’Ll Never Know Chords
The Authors 2 Tabs
The Hider Tabs
In Pursuing Design Ukulele
No Consequences Ukulele


Song lyrics



↑ Back to top | Tablatures and chords are parodies/interpretations of the original songs. You may use it for private study, scholarship, research or language learning purposes only
© 2014 AZChords.com Contact us | Privacy policy | DMCA | Add/correct tabs | Request tabs | Top 50 tabs