» » »

Versaemerge, Amercian Boy Tabs (ver.1)

Artists:  A B C D E F G H I J K L M N O P Q R S T U V W X Y Z # 

Amercian Boy Tabs (ver.1)

Versaemerge Tabs
 Rating:
4.2/5 (5 votes)
Amercian Boy lessons Tabs too difficult? Try these video lessons and learn fast
1
                -----------------------------------------------------------
“Ameriacn boy”-VersaEmerge
-----------------------------------------------------------
If you don’t know, this is a cover by versaemerge, the songs really by Estelle. All the 
tabs I looked up for this cover are f**ked, so I redid them:) it’s pretty simple 
variation. Rate so I know if it’s good. If you see any errors don’t be afraid to hit me up…

| h hammer-on |
| p pull-off  |
| / slide     |
| x palm mute |
| ~ let ring  |

Tuning: (E A D G B e)
Intro:
E|----8~--------7~--------3~--------3~--------5~--------|
B|----10~-------9~--------5~--------5~--------7~--------|
G|----9~(pause)-8~(pause)-4~(pause)-4~(pause)-6~(PAUSE)-|
D|----10~-------9~--------5~--------5~--------7~--------|
A|----8~--------7~--------3~--------0~--------5~--------|
E|----8~--------7~--------3~--------0~--------5~--------|

E|----7~--------3~--------5~----|
B|----9~--------5~--------7~----|
G|----8~(pause)-4~(pause)-6~----|
D|----9~--------5~--------7~----|
A|----7~--------3~--------5~----|
E|----7~--------3~--------5~----|





Verse:
E|----7-7-x7-x7----3-3-x3-x3----3-3-x3-x3----|
B|----9-9-x9-x9----5-5-x5-x5----5-5-x5-x5----|
G|----8-8-x8-x8----4-4-x4-x4----4-4-x4-x4----|
D|----9-9-x9-x9----5-5-x5-x5----5-5-x5-x5----|
A|----7-7-x7-x7----3-3-x3-x3----0-0-x0-x0----|
E|----7-7-x7-x7----3-3—x3-x3----0-0-x0-x0----|

E|----3-3-x3-x3---3---5-5---|
B|----5-5-x5-x5---5---7-7---|
G|----4-4-x4—x4---4---6-6---|   X2
D|----5-5-x5-x5---5---7-7---|
A|----0-0-x0-x0---0---5-5---|
E|----0-0-x0-x0---0---5-5---|

E|----8~---7-7-x7-x7----3-3-x3-x3----3-3-x3-x3----|
B|----10~--9-9-x9-x9----5-5-x5-x5----5-5-x5-x5----|
G|----9~---8-8-x8-x8----4-4-x4-x4----4-4-x4-x4----|
D|----10~--9-9-x9-x9----5-5-x5-x5----5-5-x5-x5----|
A|----8~---7-7-x7-x7----3-3-x3-x3----0-0-x0-x0----|
E|----8~---7-7-x7-x7----3-3-x3-x3----0-0-x0-x0----|

E|----7-7-x7-x7----3-3-x3-x3----3-3-x3-x3----|
B|----9-9-x9-x9----5-5-x5-x5----5-5-x5-x5----|
G|----8-8-x8-x8----4-4-x4-x4----4-4-x4-x4----|
D|----9-9-x9-x9----5-5-x5-x5----5-5-x5-x5----|
A|----7-7-x7-x7----3-3-x3-x3----0-0-x0-x0----|
E|----7-7-x7-x7----3-3—x3-x3----0-0-x0-x0----|



Bridge:
E|----8~--------7~--------3~--------3~--------5~--------|
B|----10~-------9~--------5~--------5~--------7~--------|
G|----9~(pause)-8~(pause)-4~(pause)-4~(pause)-6~(PAUSE)-|
D|----10~-------9~--------5~--------5~--------7~--------|
A|----8~--------7~--------3~--------0~--------5~--------|
E|----8~--------7~--------3~--------0~--------5~--------|

E|----7~--------3~--------5~----|
B|----9~--------5~--------7~----|
G|----8~(pause)-4~(pause)-6~----|
D|----9~--------5~--------7~----|
A|----7~--------3~--------5~----|
E|----7~--------3~--------5~----|

Verse:
E|----7-7-x7-x7----3-3-x3-x3----3-3-x3-x3----|
B|----9-9-x9-x9----5-5-x5-x5----5-5-x5-x5----|
G|----8-8-x8-x8----4-4-x4-x4----4-4-x4-x4----|
D|----9-9-x9-x9----5-5-x5-x5----5-5-x5-x5----|
A|----7-7-x7-x7----3-3-x3-x3----0-0-x0-x0----|
E|----7-7-x7-x7----3-3—x3-x3----0-0-x0-x0----|

E|----3-3-x3-x3---3---5-5---|
B|----5-5-x5-x5---5---7-7---|
G|----4-4-x4—x4---4---6-6---|   X2
D|----5-5-x5-x5---5---7-7---|
A|----0-0-x0-x0---0---5-5---|
E|----0-0-x0-x0---0---5-5---|



E|----8~---7-7-x7-x7----3-3-x3-x3----3-3-x3-x3----|
B|----10~--9-9-x9-x9----5-5-x5-x5----5-5-x5-x5----|
G|----9~---8-8-x8-x8----4-4-x4-x4----4-4-x4-x4----|
D|----10~--9-9-x9-x9----5-5-x5-x5----5-5-x5-x5----|
A|----8~---7-7-x7-x7----3-3-x3-x3----0-0-x0-x0----|
E|----8~---7-7-x7-x7----3-3-x3-x3----0-0-x0-x0----|

E|----7-7-x7-x7----3-3-x3-x3----3-3-x3-x3----|
B|----9-9-x9-x9----5-5-x5-x5----5-5-x5-x5----|
G|----8-8-x8-x8----4-4-x4-x4----4-4-x4-x4----|
D|----9-9-x9-x9----5-5-x5-x5----5-5-x5-x5----|
A|----7-7-x7-x7----3-3-x3-x3----0-0-x0-x0----|
E|----7-7-x7-x7----3-3—x3-x3----0-0-x0-x0----|

Bridge:
E|----8~--------7~--------3~--------3~--------5~--------|
B|----10~-------9~--------5~--------5~--------7~--------|
G|----9~(pause)-8~(pause)-4~(pause)-4~(pause)-6~(PAUSE)-|
D|----10~-------9~--------5~--------5~--------7~--------|
A|----8~--------7~--------3~--------0~--------5~--------|
E|----8~--------7~--------3~--------0~--------5~--------|

E|----7~--------3~--------5~----|
B|----9~--------5~--------7~----|
G|----8~(pause)-4~(pause)-6~----|
D|----9~--------5~--------7~----|
A|----7~--------3~--------5~----|
E|----7~--------3~--------5~----|





Verse:
E|----7-7-x7-x7----3-3-x3-x3----3-3-x3-x3----|
B|----9-9-x9-x9----5-5-x5-x5----5-5-x5-x5----|
G|----8-8-x8-x8----4-4-x4-x4----4-4-x4-x4----|
D|----9-9-x9-x9----5-5-x5-x5----5-5-x5-x5----|
A|----7-7-x7-x7----3-3-x3-x3----0-0-x0-x0----|
E|----7-7-x7-x7----3-3—x3-x3----0-0-x0-x0----|

E|----3-3-x3-x3---3---5-5---|
B|----5-5-x5-x5---5---7-7---|
G|----4-4-x4—x4---4---6-6---|   X2
D|----5-5-x5-x5---5---7-7---|
A|----0-0-x0-x0---0---5-5---|
E|----0-0-x0-x0---0---5-5---|

E|----8~---7-7-x7-x7----3-3-x3-x3----3-3-x3-x3----|
B|----10~--9-9-x9-x9----5-5-x5-x5----5-5-x5-x5----|
G|----9~---8-8-x8-x8----4-4-x4-x4----4-4-x4-x4----|
D|----10~--9-9-x9-x9----5-5-x5-x5----5-5-x5-x5----|
A|----8~---7-7-x7-x7----3-3-x3-x3----0-0-x0-x0----|
E|----8~---7-7-x7-x7----3-3-x3-x3----0-0-x0-x0----|

E|----7-7-x7-x7----3-3-x3-x3----3-3-x3-x3----|
B|----9-9-x9-x9----5-5-x5-x5----5-5-x5-x5----|
G|----8-8-x8-x8----4-4-x4-x4----4-4-x4-x4----|
D|----9-9-x9-x9----5-5-x5-x5----5-5-x5-x5----|
A|----7-7-x7-x7----3-3-x3-x3----0-0-x0-x0----|
E|----7-7-x7-x7----3-3—x3-x3----0-0-x0-x0----|



E|----7-7-x7-x7----3-3-x3-x3----3-3-x3-x3----|
B|----9-9-x9-x9----5-5-x5-x5----5-5-x5-x5----|
G|----8-8-x8-x8----4-4-x4-x4----4-4-x4-x4----|
D|----9-9-x9-x9----5-5-x5-x5----5-5-x5-x5----|
A|----7-7-x7-x7----3-3-x3-x3----0-0-x0-x0----|
E|----7-7-x7-x7----3-3—x3-x3----0-0-x0-x0----|

E|----3-3-x3-x3---3---5-5---|
B|----5-5-x5-x5---5---7-7---|
G|----4-4-x4—x4---4---6-6---|   X2
D|----5-5-x5-x5---5---7-7---|
A|----0-0-x0-x0---0---5-5---|
E|----0-0-x0-x0---0---5-5---|

E|----8~---7-7-x7-x7----3-3-x3-x3----3-3-x3-x3----|
B|----10~--9-9-x9-x9----5-5-x5-x5----5-5-x5-x5----|
G|----9~---8-8-x8-x8----4-4-x4-x4----4-4-x4-x4----|
D|----10~--9-9-x9-x9----5-5-x5-x5----5-5-x5-x5----|
A|----8~---7-7-x7-x7----3-3-x3-x3----0-0-x0-x0----|
E|----8~---7-7-x7-x7----3-3-x3-x3----0-0-x0-x0----|

E|----7-7-x7-x7----3-3-x3-x3----3-3-x3-x3----|
B|----9-9-x9-x9----5-5-x5-x5----5-5-x5-x5----|
G|----8-8-x8-x8----4-4-x4-x4----4-4-x4-x4----|
D|----9-9-x9-x9----5-5-x5-x5----5-5-x5-x5----|
A|----7-7-x7-x7----3-3-x3-x3----0-0-x0-x0----|
E|----7-7-x7-x7----3-3—x3-x3----0-0-x0-x0----|




E|----8~--------7~--------|
B|----10~-------9~--------|
G|----9~--------8~--------| End
D|----10~-------9~--------|
A|----8~--------7~--------|
E|----8~--------7~--------|

So that’s it, hopefully I didn’t mess it up. The chords are right I now that. Thanks for using.
            
Submit corrections

comments powered by Disqus
↑ Back to top | Versaemerge Tabs for Amercian Boy. Lyrics for acoustic guitar and electric guitar. 1 Tablatures and chords are parodies/interpretations of the original songs. You may use it for private study, scholarship, research or language learning purposes only