» » »

Verdena, Spaceman Tabs (ver.1)

Artists:  A B C D E F G H I J K L M N O P Q R S T U V W X Y Z # 

Spaceman Tabs (ver.1)

Verdena Tabs
Rating:
0/5 (0 votes)
Spaceman lessons Tabs too difficult? Try these video lessons and learn fast
                SPACEMAN
Verdena



Tune 1/2 step down (Eb Ab Db Gb Bb eb)


Intro

|--------|--------|--------|--------|--------|--------|--------|--------|
|--------|--------|--------|--------|--------|--------|--------|--------|
|-14-----|-16-----|-17-----|-14-----|-19-----|-16-----|-17-----|-21-----|
|----(x8)|----(x8)|----(x8)|----(x8)|----(x8)|----(x8)|----(x8)|----(x8)|
|-12-----|-14-----|-15-----|-12-----|-17-----|-14-----|-15-----|-19-----|
|--------|--------|--------|--------|--------|--------|--------|--------|


Main riff

|-------|-------------|-------|-------|-------------|-------|-------|-------|
|-------|-------------|-------|-------|-------------|-------|-------|-------|
|14-----|16-----19----|17-----|14-----|19-----21----|16-----|17-----|21-----|
|---(x8)|--(x4)---(x4)|---(x8)|---(x8)|--(x4)---(x4)|---(x8)|---(x8)|---(x8)|
|12-----|14-----17----|15-----|12-----|17-----19----|14-----|15-----|19-----|
|-------|-------------|-------|-------|-------------|-------|-------|-------|


Verse 1 (all x2)

|-------------------------|-------------------------|
|-------10-------10----10-|-------12-------13----13-|
|----12-------12----12----|----10-------12----------|
|-10-------10-------------|-10-------10-------10----| (x3)
|-------------------------|-------------------------|
|-------------------------|-------------------------|
la fine è qui e ti
cullerÃ* io temo di
|-------------------------|-------------------------|
|-10-------10-------12----|-10-------12-------13----|
|----12-------12----------|----12-------12----------|
|-------10-------10----10-|-------10-------10----10-|
|-------------------------|-------------------------|
|-------------------------|-------------------------|
vincerti!


La vertigine in volo
nessuno saprÃ* mai che posso in cielo
dovrÃ* con...
cludersi nel blu


[Repeat main riff]


Verse 2 (the same as 1 but this lasts the half)

tu giura è qui che
incontrerai e sarai
simile a me!


Bridge

|-5-----5-----|-5-----5-----|
|---0-----0---|---0-----0---|
|-----4-----4-|-----4-----4-|
|-------------|-------------|
|-------------|-------------|
|-------------|-------------|
in ogni... 

|-3-----3-----|-3-----3-----|-0-----0-----|-0-----0-----|
|---0-----0---|---0-----0---|---0-----0---|---0-----0---|
|-----4-----4-|-----4-----4-|-----4-----4-|-----4-----4-|
|-------------|-------------|-------------|-------------| (X3)
|-------------|-------------|-------------|-------------| 
|-------------|-------------|-------------|-------------|
io che sei tudu dudù in ogni...

|-3-----3-----|-3-----3-----|----------|----------|
|---0-----0---|---0-----0---|----------|----------|
|-----4-----4-|-----4-----4-|-17-------|-17-------|
|-------------|-------------|-----(x8)-|-----(X8)-|
|-------------|-------------|-15-------|-15-------| 
|-------------|-------------|----------|----------|
io che sei tudu dudù in ogni...

|----------|----------|----------|----------|
|----------|----------|----------|----------|
|-14-------|-14-------|-17-------|-17-------|
|-----(x8)-|-----(x8)-|-----(x8)-|-----(x8)-| (x3)
|-12-------|-12-------|-15-------|-15-------|
|----------|----------|----------|----------|
io che sei tudu dudù ogni...

|----------|----------|
|----------|----------|
|-19-------|-19-------|
|-----(x8)-|-----(x8)-|
|-17-------|-17-------|
|----------|----------|
io che sei tudu dudù


[Repeat intro]


Verse 3 (the same as 1)

la fine è qui e ti cullerÃ*
io temo di
vincerti
la vertigine in volo
respira in vene lisce e questo è
bene dovrò con...
cluderti, concluderti!


Ending

|----------------------|--------------------|--------------------|--------------------|
|------10------10----10|------12------13--13|10------10------12--|10------12------13--|
|---12------12----12---|---10------12-------|---12------12-------|---12------12-------|
|10------10------------|10------10------10--|------10------10--10|------10------10--10| (x3)
|----------------------|--------------------|--------------------|--------------------|
|----------------------|--------------------|--------------------|--------------------|
x___________________(x3)__________________x


while an other plays this riff:

|----------|----------|----------|----------|----------|----------|----------|
|-12~------|----13-12-|-10~------|----13-12-|----------|----------|-12~------|
|----------|----------|----------|----------|-10~----9-|-9s12~----|----------|
|----------|----------|----------|----------|----------|----------|----------|
|----------|----------|----------|----------|----------|----------|----------|
|----------|----------|----------|----------|----------|----------|----------|
            
Submit corrections

comments powered by Disqus
↑ Back to top | Verdena Tabs for Spaceman. Lyrics for acoustic guitar and electric guitar. Tablatures and chords are parodies/interpretations of the original songs. You may use it for private study, scholarship, research or language learning purposes only