» » »

Muori Delay Tabs (ver.1)

Artists:  A B C D E F G H I J K L M N O P Q R S T U V W X Y Z # 

Muori Delay Tabs (ver.1)

Verdena
Rating:
2/5 (3 votes)

Hard to play? Try these video lessons and learn fast.
                Requiem

Main reef ed intro
 ------------------------------------------------------|
 ------------------------------------------------------|
 -----------------------9-9-9-9------------------------|
 ---9-9-9-9--7-7-7-7--5/7-7-7-7---9-9-9-9--5-----------|
 -5/7-7-7-7--5-5-5-5------------5/7-7-7-7----7---------|
E------------------------------------------------------|

Bridge1
   A
 -------|
 -------|
 ---7---|
 ---7---|
 ---5---|
 -------|
 ....é la mia attitudineeee....

Bridge2

 --------------------|
 --------------------|
 ---------4-5-7------|
 -4-4-6-7-4-5-7-4-4--|
 -4-4-6-7-2-3-5-4-4--|
 -2-2-4-5-------2-2--|
...sento che durerà un po', deriso dalla folla il clown...

Solo (it isn't perfect, i think... sorry!)
 ---------------------------------------------------5-----|
 ------------------------------------------7--------------|
 -6-6-7-6--6-7-6----6-7-6----7-9-7-6-7/9-9---9------------|
 ---------9------9----------------------------------------|
 ---------------------------------------------------------|
 --------------------------0--------------------0---------|
            
Hard to play? Try these video lessons and learn fast. | Correct




comments powered by Disqus
↑ Back to top | Tablatures and chords are parodies/interpretations of the original songs. You may use it for private study, scholarship, research or language learning purposes only