» » »

Verdena, Glamodrama Bass tabs (ver.1)

Artists:  A B C D E F G H I J K L M N O P Q R S T U V W X Y Z # 

Glamodrama Bass tabs (ver.1)

Verdena Tabs
 Rating:
4/5 (4 votes)
Glamodrama lessons Tabs too difficult? Try these video lessons and learn fast
1
                STROFA
|--------------------------------------------------------------------------|
|----------------555---------------777---------------555---------------555-|
|---------------------3-3-3-3-33-3-----------------------------------------|
|---0-0-0-0-00-0------------------------3-3-3-3-33-3------3-3-3-3-33-3-----|

chorus

|------------------------------------------------------------|
|------------------------------------------------------------|
|3-3-3-3---2-2-2-2--1-1-1-1--2-2-2-2-------------------------|
|---------------------------------------444444--3333333333333|

SOLO
|--------------------------------------------------------------------------|
|----------------555---------------777---------------555---------------555-|
|---7-7-7-7-77-7------3-3-3-3-33-3-----------------------------------------|
|---------------------------------------3-3-3-3-33-3------3-3-3-3-33-3-----|


fine
|---------------------------------------------------------------------|
|---------------------------------------------------------------------|
|-----3---3---3---3---3---3---3------1---1---1---1---1---1---1--------|
|---------------------------------------------------------------------|

|-----------------------------------------------------------------------|
|-----------------------------------------------------------------------|
|--2---2---2---2---2---2---2---2----1---1---1---1---1---1---1---1-------|
|-----------------------------------------------------------------------|


|------------------------------------------|
|------------------------------------------|
|--1---1---1---1---1---1---1---1---1---1---|
|------------------------------------------|
            
Submit corrections

comments powered by Disqus
↑ Back to top | Verdena Bass for Glamodrama. Lyrics for acoustic guitar and electric guitar. 1 Tablatures and chords are parodies/interpretations of the original songs. You may use it for private study, scholarship, research or language learning purposes only