>
 >
Centrifuga

Centrifuga Guitar Tabs

Verdena - Centrifuga chords, tabs, tablatures, lyrics

Guitar lessons | Add/correct | Request | Top 50 tabs Artists:  A B C D E F G H I J K L M N O P Q R S T U V W X Y Z 0-9

Centrifuga Guitar Tabs – Verdena

CD, Sheet music, Poster

Do you like Centrifuga? Share with your friends now
Tabs
INTRO:

E-|-0---------0----0------------0----------0---------------------------------------------------|
B-|-0--------------0---------------------------------------------------------------------------|
G-|-6-------6------9----------6----------6-----------------------------------------------------|
D-|-6-----6--------9--------6----------6-------------------------------------------------------|
A-|-4---4----------7------4----------4---------------------------------------------------------|
E-|--------------------------------------------------------------------------------------------|


VERSE:

E-|-0---------0----0---------------|
B-|-0--------------0---------------|
G-|-6-------6------9---------------|
D-|-6-----6--------9---------------|
A-|-4---4----------7---------------|
E-|--------------------------------|


INTERLUDE 1:

E-|-------------------------------------------------------------|
B-|-------------------------------------------------------------|
G-|-8--8--8--9--6--6--6--6--9--9--9--12--12--12-----------------|
D-|-8--8--8--9--6--6--6--6--9--9--9--12--12--12-----------------|    (x 4 volte)
A-|-6--6--6--7--4--4--4--4--7--7--7--10--10--10-----------------|
E-|-------------------------------------------------------------|


VERSE:

E-|-0---------0----0---------------|
B-|-0--------------0---------------|
G-|-6-------6------9---------------|
D-|-6-----6--------9---------------|
A-|-4---4----------7---------------|
E-|--------------------------------|


INTERLUDE 2:

E-|-----------------------------------------------------------------|
B-|-----------------------------------------------------------------|
G-|-8--8--8--9--6--6--6--6--9--9--9---------------------------------|
D-|-8--8--8--9--6--6--6--6--9--9--9--7--7--7--7---------------------|    (x 1 volta)
A-|-6--6--6--7--4--4--4--4--7--7--7--7--7--7--7---------------------|
E-|----------------------------------5--5--5--5---------------------|


CHORUS:

E-|------------------------------------------------------------------------------|
B-|------------------------------------------------------------------------------|
G-|-------------------------6*-6*-6*--6*-6*-6*--6*-6*-6*--9--9--9--9-------------|
D-|-7--7--7--7--9--9--9--9--6*-6*-6*--6*-6*-6*--6*-6*-6*--9--9--9--9-------------|
A-|-7--7--7--7--9--9--9--9--4*-4*-4*--4*-4*-4*--4*-4*-4*--7--7--7--7-------------|
E-|-5--5--5--5--7--7--7--7-------------------------------------------------------|

          ... e comunque sia    tu    nei     sensi   nell'immagine.....

E-|------------------------------------------------------------------------------|
B-|------------------------------------------------------------------------------|
G-|-------------------------6*-6*-6*--6*-6*-6*--6*-6*-6*--9--9--9--9-------------|
D-|-7--7--7--7--9--9--9--9--6*-6*-6*--6*-6*-6*--6*-6*-6*--9--9--9--9-------------|
A-|-7--7--7--7--9--9--9--9--4*-4*-4*--4*-4*-4*--4*-4*-4*--7--7--7--7-------------|
E-|-5--5--5--5--7--7--7--7-------------------------------------------------------|

      ... puoi convincermi   tutto    in     fondo   cosė semplice.....


INTERLUDE 3:

E-|-----------------------------------------------------------------|
B-|-----------------------------------------------------------------|
G-|-8--8--8--9--6--6--6--6--9--9--9---------------------------------|
D-|-8--8--8--9--6--6--6--6--9--9--9--7--7--7--7---------------------|    (x 4 volte)
A-|-6--6--6--7--4--4--4--4--7--7--7--7--7--7--7---------------------|
E-|----------------------------------5--5--5--5---------------------|


VERSE:

E-|-0---------0----0---------------|
B-|-0--------------0---------------|
G-|-6-------6------9---------------|
D-|-6-----6--------9---------------|
A-|-4---4----------7---------------|
E-|--------------------------------|


PRE-CHORUS:

E-|------------------------------------------------------|
B-|------------------------------------------------------|
G-|-8--8--8--8--8--8--8--8--8--8-------------------------|
D-|-8--8--8--8--8--8--8--8--8--8-------------------------|    (x 2 volte)
A-|-6--6--6--6--6--6--6--6--6--6-------------------------|
E-|------------------------------------------------------|


PRE-CHORUS 2:

E-|---------------------------------------------------------------------------------------------|
B-|---------------------------------------------------------------------------------------------|
G-|-9--9--9--9--9--9--11-11-11-11-11-11--13--13--13--13--13--13--13--13-/-16--16--16------------|
D-|-9--9--9--9--9--9--11-11-11-11-11-11--13--13--13--13--13--13--13--13-/-16--16--16------------|
A-|-7--7--7--7--7--7--9--9--9--9--9--9---11--11--11--11--11--11--11--11-/-14--14--14------------|
E-|---------------------------------------------------------------------------------------------|


CHORUS:

E-|------------------------------------------------------------------------------|
B-|------------------------------------------------------------------------------|
G-|-------------------------6*-6*-6*--6*-6*-6*--6*-6*-6*--9--9--9--9-------------|
D-|-7--7--7--7--9--9--9--9--6*-6*-6*--6*-6*-6*--6*-6*-6*--9--9--9--9-------------|
A-|-7--7--7--7--9--9--9--9--4*-4*-4*--4*-4*-4*--4*-4*-4*--7--7--7--7-------------|
E-|-5--5--5--5--7--7--7--7-------------------------------------------------------|

          ... e comunque sia    tu    nei     sensi   nell'immagine.....

E-|------------------------------------------------------------------------------|
B-|------------------------------------------------------------------------------|
G-|-------------------------6*-6*-6*--6*-6*-6*--6*-6*-6*--9--9--9--9-------------|
D-|-7--7--7--7--9--9--9--9--6*-6*-6*--6*-6*-6*--6*-6*-6*--9--9--9--9-------------|
A-|-7--7--7--7--9--9--9--9--4*-4*-4*--4*-4*-4*--4*-4*-4*--7--7--7--7-------------|
E-|-5--5--5--5--7--7--7--7-------------------------------------------------------|

      ... puoi convincermi   tutto    in     fondo   cosė semplice.....


INTERLUDE 3

PRE-CHORUS 2

VERSO

INTERLUDE 3 (clean) viene fatto + volte

INTERLUDE 3 (distortion)

PRE-CHORUS 2

CHORUS





Comments


Popular Verdena tabs & chords
Dentro Sharon Bass Tabs
Solo Un Grande Sasso 1 Bass Tabs
Valvonauta 3 Bass Tabs
Viba 1 Bass Tabs
Piuma Chords
Apice Tabs
Buona Risposta Tabs
Onan Tabs
Viba Tabs
Logorrea Ukulele


Song lyrics



↑ Back to top | Tablatures and chords are parodies/interpretations of the original songs. You may use it for private study, scholarship, research or language learning purposes only
© 2014 AZChords.com Contact us | Privacy policy | DMCA | Add/correct tabs | Request tabs | Top 50 tabs