» » »

Balanite Tabs (ver.1)

Artists:  A B C D E F G H I J K L M N O P Q R S T U V W X Y Z # 

Balanite Tabs (ver.1)

Verdena
Rating:
0/5 (0 votes)

Hard to play? Try these video lessons and learn fast.
                Tune 1/2 step down (Eb Ab Db Gb Bb eb)


Intro

|-0---0-0----------0----------0----|
|-1---0-0-----0-0--1------1-----1--|
|-2---2-1-----1-1--2----2----------| X4
|-2---2-2-----2-2--2---------------|
|-x---2-2-----2-2--0---------------|
|-1---0-0-----0-0------------------|


Verse 1

|------------------------------------------5-------5-------5-------5|
|--------10-------10-------9-------9--------------------------------|
|--------------------------------------5-------5-------5-------5----| X4
|---10--------10-------9-------9-----7---7---7---7---7---7---7---7--|
|-8----8----8---8----7---7---7---7----------------------------------|
|-------------------------------------------------------------------|
  F7+                 E                Am
  Sono               steso   su un cielo-fan che opportunamen...
  te ho          disteso           per me, ora com...
  menta...            mi        un giorno come non lo hai fat...
  to mai,       io lo spero        ancora, ancora

|-0---0-0----------0----------0----|
|-1---0-0-----0-0--1------1-----1--|
|-2---2-1-----1-1--2----2----------| X2
|-2---2-2-----2-2--2---------------|
|-x---2-2-----2-2--0---------------|
|-1---0-0-----0-0------------------|

as Verse 1

 Spesso dormo su un cielo-fan, qui le cose sfuggo...
 no e non mi spiego perché, se puoi con...
 densa il giorno, con me non lo hai fatto
 mai e fa male ancora, eppure...

|-----------------------------------------------------------------|
|-----------------------------------------------------------------|
|------------------------------------------4----------------------|
|5-5-5-5-5-5-5-5--5-5-5-5-5-5-5-5--5-5-5-5----5-5--5-5-5-5-5-5-5-5|
|5-5-5-5-5-5-5-5--5-5-5-5-5-5-5-5--5-5-5-5----5-5--5-5-5-5-5-5-5-5|
|3-3-3-3-3-3-3-3--3-3-3-3-3-3-3-3--3-3-3-3----3-3--3-3-3-3-3-3-3-3|
 G
 non stai per piangere...                    bah wow!   Torna la libidi...

|-------------------------------------------------------------------|
|-------------------------------------------------------------------|
|-14-------16-16-16-16-17-17-17-17--14-------16-16-16-16-14-14-14-14|
|-----(x8)-----------------------------(x8)-------------------------|
|-12-------14-14-14-14-15-15-15-15--12-------14-14-14-14-12-12-12-12|
|-------------------------------------------------------------------|
  Dm
  ne...                      prima o poi,                  lo spero per...

|-----------------------------------------------------------------|
|-----------------------------------------------------------------|
|------------------------------------------4----------------------|
|5-5-5-5-5-5-5-5--5-5-5-5-5-5-5-5--5-5-5-5----5-5--5-5-5-5-5-5-5-5|
|5-5-5-5-5-5-5-5--5-5-5-5-5-5-5-5--5-5-5-5----5-5--5-5-5-5-5-5-5-5|
|3-3-3-3-3-3-3-3--3-3-3-3-3-3-3-3--3-3-3-3----3-3--3-3-3-3-3-3-3-3|
 G
 te             finta            comodi...   tà!        torna la libidi...

|------------------------------------------------------|
|------------------------------------------------------|
|-14-------16-16-16-16-17-17-17-17--19--------17-------|
|-----(x8)------------------------------(x8)------(x8)-|
|-12-------14-14-14-14-15-15-15-15--17--------15-------|
|------------------------------------------------------|
  Dm
  ne...                      prima o poi!

as Verse 1

 Ho sonno e dormo un po’ di più, perdo la lucidi...
 tà ma la ritrovo sempre, l’orrore
 scenico perde tutta le comici...
 tà ed io mi chiedo perché, davvero...

|-----------------------------------------------------------------|
|-----------------------------------------------------------------|
|------------------------------------------4----------------------|
|5-5-5-5-5-5-5-5--5-5-5-5-5-5-5-5--5-5-5-5----5-5--5-5-5-5-5-5-5-5|
|5-5-5-5-5-5-5-5--5-5-5-5-5-5-5-5--5-5-5-5----5-5--5-5-5-5-5-5-5-5|
|3-3-3-3-3-3-3-3--3-3-3-3-3-3-3-3--3-3-3-3----3-3--3-3-3-3-3-3-3-3|
 G
 non stai per piangere...                    bah wow!   Torna la libidi...

|-------------------------------------------------------------------|
|-------------------------------------------------------------------|
|-14-------16-16-16-16-17-17-17-17--14-------16-16-16-16-14-14-14-14|
|-----(x8)-----------------------------(x8)-------------------------|
|-12-------14-14-14-14-15-15-15-15--12-------14-14-14-14-12-12-12-12|
|-------------------------------------------------------------------|
  Dm
  ne...                      prima o poi,                  lo spero per...

|-----------------------------------------------------------------|
|-----------------------------------------------------------------|
|------------------------------------------4----------------------|
|5-5-5-5-5-5-5-5--5-5-5-5-5-5-5-5--5-5-5-5----5-5--5-5-5-5-5-5-5-5|
|5-5-5-5-5-5-5-5--5-5-5-5-5-5-5-5--5-5-5-5----5-5--5-5-5-5-5-5-5-5|
|3-3-3-3-3-3-3-3--3-3-3-3-3-3-3-3--3-3-3-3----3-3--3-3-3-3-3-3-3-3|
 G
 te             finta            comodi...   tà!        torna la libidi...

|------------------------------------------------------|
|------------------------------------------------------|
|-14-------16-16-16-16-17-17-17-17--19--------17-------|
|-----(x8)------------------------------(x8)------(x8)-|
|-12-------14-14-14-14-15-15-15-15--17--------15-------|
|------------------------------------------------------|
  Dm
  ne...                      prima o poi!


End

         F7  E  Am
 Prima o poi       X4
            
Hard to play? Try these video lessons and learn fast. | Correct




comments powered by Disqus
↑ Back to top | Tablatures and chords are parodies/interpretations of the original songs. You may use it for private study, scholarship, research or language learning purposes only