» » »

Verbena, Oh My Tabs (ver.1)

Artists:  A B C D E F G H I J K L M N O P Q R S T U V W X Y Z # 

Oh My Tabs (ver.1)

Verbena Tabs
Rating:
0/5 (0 votes)
Oh My lessons Tabs too difficult? Try these video lessons and learn fast
                open G tuning
dgdgbe

intro:
e -xx-xx-xx-xx-xx-xx--------------------------------------------------
b -xx-xx-xx-xx-xx-xx--------------------------------------------------
g -xx-xx-xx-xx-xx-xx ---------------         999-00-2-4-0-5-4-0-2-4-2
d -xx-xx-xx-xx-xx-xx <<PALM MUFF  and then>  999-00-2-4-0-5-4-0-2-4-2 REPEAT 
g -66-66-66-66-66-66----------------         999-00-2-4-0-5-4-0-2-4-2
d -44-44-44-44-44-44--------------------------------------------------

chorus/hook: seems I got a blister…..
e ----------------------------------------------------------------------------
b ----------------------------------------------------------------------------
g -999-0-4-5-4-0-2-0-2-0-2s4rrr-------------------999-0-4-5-4-0-2-0-2-0-2s4rrr
d -999-0-4-5-4-0-2-0-2-0-2s4rrr    end chorus on  999-0-4-5-4-0-2-0-2-0-2s4rrr
g -999-0-4-5-4-0-2-0-2-0-2s4rrr-------------------999-0-4-5-4-0-2-0-2-0-2s4rrr
d ----------------------------------------------------------------------------
            

comments powered by Disqus
↑ Back to top | Verbena Tabs for Oh My. Lyrics for acoustic guitar and electric guitar. Tablatures and chords are parodies/interpretations of the original songs. You may use it for private study, scholarship, research or language learning purposes only