>
 >
Me And Yr Sister

Me And Yr Sister Guitar Tabs

Verbena - Me And Yr Sister chords, tabs, tablatures, lyrics

Guitar lessons | Add/correct | Request | Top 50 tabs Artists:  A B C D E F G H I J K L M N O P Q R S T U V W X Y Z 0-9

Me And Yr Sister Guitar Tabs – Verbena

CD, Sheet music, Poster

Do you like Me And Yr Sister? Share with your friends now
Tabs
Capitol Records

a).  Tune to:  D G D G B D

b).  Play the song:


(Intro):
D----------------------------------
B-------5----5h6------6-----6r5----
G-------5----5--------5-----5r5----	etc., pretty easy to get
D-----5---5--5h7---7--7--7--7r5----	a feel for...
G---5------------5-----------------
D----------------------------------

"Say hello to your sister,
she's the one that I want..."


(Descending thing):
D---------------------------------------------------------------------
B---------------------------------------------------------------------
G--------2--------0---------------------------------------------------
D------2---2----0---0------3-------2----0----------------3--------0---
G--0-2--------0----------5---5---4---2--2--------------5---5----0---0-
D----------------------3-------2--------0--------0-2-3--------0-------
   "I hear she's got a pocket full of angels"

(Intro again):
"Well tell her I'll be her mirror
And we'd pretend that we're virgins..."


D---------------------------------------------------------------------
B---------------------------------------------------------------------
G--------2--------0-----------------------------0-0-0-0-0-0-0---------
D------2---2----0---0------3-------2----0-------0-0-0-0-0-0-0-0h2-----
G--0-2--------0----------5---5---4---2--2-------0-0-0-0-0-0-0---------
D----------------------3-------2--------0-----------------------------
   "A silver lining stain on golden roses"			"Cut your..


(Pre-chorus):
D---------------------------------------------------------------------
B---------------------------------------------------------------------
G------------------------0-0-0-0------0-------------------------------
D----3-3-3-3-3-3-3-3-3-3-0-0-0-0--0h2---2r0---------------------------
G----5-5-5-5-5-5-5-5-5-5-0-0-0-0------------5-5-----------------------
D----3-3-3-3-3-3-3-3-3-3----------------------3-----------------------
 ...skin, but you won't bruise it...	...cause they're


D---------------------------------------------------------------------
B---------------------------------------------------------------------
G------------------------0-0-0-0------0-------------------------------
D----3-3-3-3-3-3-3-3-3-3-0-0-0-0--0h2---2r0---------------------------
G----5-5-5-5-5-5-5-5-5-5-0-0-0-0------------5-------------------------
D----3-3-3-3-3-3-3-3-3-3----------------------------------------------
  ...girls, they know how to use it..."


(Chorus):
D---------------------------------------------------------------------
B---------------------------------------------------------------------
G-----------2----2----5---5------------0------------------------------
D-----------2----2----5---5---3----0h2---2r0--------------------------
G-----------2----2----5---5---5--------------5------------------------
D-----------------------------3---------------------------------------
  "born to kill, unfortunate son...
   juice & gin, and coming undone
   bottle spins, suck on your thumb
   born again, SON OF A GUN..."

(Intro):
"Hey....."
"Say hi for me to Jesus,
 I haven't seen him for a while."

(Descending thing):
"He blew a kiss, it missed me by a mile."

(Intro):
"I caught your smile at the funeral,
 it wasn't as white as the wedding."



D----------------------------------------------------------------------
B----------------------------------------------------------------------
G--------2--------0-------------------------------------5-5-5-5-0-0-0-0
D------2---2----0---0------3-------2------------3-3-3-3-5-5-5-5-0-0-0-0
G--0-2--------0----------5---5---4---2----------5-5-5-5-5-5-5-5-0-0-0-0
D----------------------3-------2----------------3-3-3-3----------------
   "We're on our knees, oh darling please	  and we'll do our communion."

(Pre-chorus)

(Chorus)


("Hey" section):
D-----------------------------------------
B-----------------------------------------
G--5--5--5-5-5-5-5-2----------------------
D--5--5--5-5-5-5-5-2----3--3--3-3-3-3-3--- etc...
G--5--5--5-5-5-5-5-2----5--5--5-5-5-5-5---
D-----------------------3--3--3-3-3-3-3---
 "Hey.........
  Hey Hey HEY yeah...."


(Chorus):
"Born again, SON OF A GUN...
 Born again, SON OF A GUN...
 Born again, SON OF A GUN...
 Born again, SON OF A GUN..."

("Hey" section)

the end





Comments


Popular Verbena tabs & chords
Aint It A Shame Tabs
Desert Tabs
Devil In Miss Jones Tabs
Hey, Come On Tabs
Junk For Fashion Tabs
Killing Floor Tabs
Lovely Isnt Love Tabs
Oh My Tabs
Shaped Like A Gun Tabs
Song That Ended Your Career Tabs


Song lyrics



↑ Back to top | Tablatures and chords are parodies/interpretations of the original songs. You may use it for private study, scholarship, research or language learning purposes only
© 2014 AZChords.com Contact us | Privacy policy | DMCA | Add/correct tabs | Request tabs | Top 50 tabs