» » »

Verbena, Killing Floor Tabs (ver.1)

Artists:  A B C D E F G H I J K L M N O P Q R S T U V W X Y Z # 

Killing Floor Tabs (ver.1)

Verbena Tabs
 Rating:
4/5 (4 votes)
Killing Floor lessons Tabs too difficult? Try these video lessons and learn fast
                KILLING FLOOR (GET DOWN ON IT)
on Capitol Records


TUNING:  D G D G B D

(Intro):
D-------------------------------------------------------------------
B--5-3-5-3-5-3-5-3-5-3-5-3-5-3-5-3-5-3-5-3-5-3-5-3-5-3-5-3-6-5-3----
G--5-3-5-3-5-3-5-3-5-3-5-3-5-3-5-3-5-3-5-3-5-3-5-3-5-3-5-3-6-5-3----
D--5-3-5-3-5-3-5-3-5-3-5-3-5-3-5-3-5-3-5-3-5-3-5-3-5-3-5-3-6-5-3----
G--5-3-5-3-5-3-5-3-5-3-5-3-5-3-5-3-5-3-5-3-5-3-5-3-5-3-5-3-6-5-3--5-
D-----------------------------------------------------------------3-

(Verse):
D-------------------------------------------------------------------
B-------------------------------------------------------------------
G---0------3-3-----5-5-----5-5------0----3-3-----5-5---5-5---10--12-
D---0------3-3-----5-5-----5-5------0----3-3-----5-5---5-5---10--12-
G---0------3-3-----5-5-----5-5-5-6--0----3-3-----5-5---5-5---10--12-
D------------------------------3-4----------------------------------

"Hey for I'd like to know whatever ya need to feel good
 and he said you can have whatever you want as your wish
 Hey hey, whatcha say?"

(Chorus lead-in):
D-------------------------------------------------------------------
B-------------------------------------------------------------------
G---5~-~---5--3-------5b6b5r3---------------------------------------
D---------------5-3-5---------5-------------------------------------
G---5~-~------------------------------------------------------------
D-------------------------------------------------------------------

(Chorus):
D-------------------------------------------------------------------
B-------------------------------------------------------------------
G-------------------------------------------------------------------
D-------------------------------------------------------------------
G--3--3--3------3-5-3---5--5--5-------------------------------------
D--1--1--1--3-5-------5-3--3--3-3--5--3-5---------------------------

"Just take out your gun (woo-hoo-hoo),
 wave it all around (woo-hoo-hoo),
 don't need to feel like no whore (woo-hoo-hoo),
 just move out on the killing floor..."

(Intro) (shorter)

"Yeah..."

(Verse)

"I know that you have heard this story before, huh, oh babe
 just make sure you keep up your end of the deal,  oh hell no
 Hey hey, now it's on..."

(Chorus lead-in)

(Chorus)

(Bridge):
guitar under solo:
D-------------------------------------------------------------------
B-------------------------------------------------------------------
G---0--0-------------3-3-/-15----5--5---------0--0------------------
D---0--0----3--3-----3-3-/-15----5--5---3--4--0--0------------------
G---0--0----5--5-----3-3-/-15----5--5---5--6--0--0------------------
D-----------3--3------------------------3--4------------------------


D--------------------------------------------------------------------------
B--------------------------------------------------------------------------
G----------3--3-/-15----5--5--5---------3-3---3-3-3---5-5-5---5-5-5--5--17b~
D---3--3---3--3-/-15----5--5--5---------3-3---3-3-3---5-5-5---5-5-5--5-----
G---5--5---3--3-/-15----5--5--5-------2-3-3---3-3-3---5-5-5---5-5-5--5--17b~
D---3--3------------------------3-4-5--------------------------------------
			    "uh-huh, uh-huh..."


(solo to be added at a later date)...

(Chorus/Outro)



Song ends on:
D----------------------------------------------
B----------------------------------------------
G------------------/-10-10-10-10-10-10----2----
D--3-3-3-3-3-3-3-3-/-10-10-10-10-10-10----0----
G--5-5-5-5-5-5-5-5-/-10-10-10-10-10-10----0----
D--3-3-3-3-3-3-3-3-----------------------------


Some of these tabs may be a bit misleading but scott kinda does variations on all the parts of the song each time through.  This is, in general, how the song goes but to play it exactly as on the album you're going to have to listen and adjust some stuff by ear.
            
Submit corrections

comments powered by Disqus
↑ Back to top | Verbena Tabs for Killing Floor. Lyrics for acoustic guitar and electric guitar. Tablatures and chords are parodies/interpretations of the original songs. You may use it for private study, scholarship, research or language learning purposes only