» » »

Verbena, Hey, Come On Tabs (ver.1)

Artists:  A B C D E F G H I J K L M N O P Q R S T U V W X Y Z # 

Hey, Come On Tabs (ver.1)

Verbena Tabs
Rating:
0/5 (0 votes)
Hey, Come On lessons Tabs too difficult? Try these video lessons and learn fast
                intro part
A, G 

riff thing before verse singing
e:---02-----------3-55-33-55
B:3-3--3--2-2-0---3-55-33-55
G:2-2---2-2-2---2-4-66-44-66
D:0-0-----2-2---2-5-77-55-77
A:--------0-0---0-5-77-55-77
E:----------------3-55-33-55

when the singing starts it is basically the same
D, A, G, AA, GG, AA
Chorus:
G,A,G/F#

Progression right after the chorus:
e:-----------------------
B:-----------------------
G:7~~7/11\7/11-7---------
D:7~~7/11\7/11-7-7-5-77--
A:5~~5/9 \5/9 -5-7-5-77--
E:---------------5-3-55--  2x i think


D:5
A:5
E:2


thats basically it. i think it is a half step down if i remember correctly.
            

comments powered by Disqus
↑ Back to top | Verbena Tabs for Hey, Come On. Lyrics for acoustic guitar and electric guitar. Tablatures and chords are parodies/interpretations of the original songs. You may use it for private study, scholarship, research or language learning purposes only