» » »

Verbena, Devil In Miss Jones Tabs (ver.1)

Artists:  A B C D E F G H I J K L M N O P Q R S T U V W X Y Z # 

Devil In Miss Jones Tabs (ver.1)

Verbena Tabs
 Rating:
4/5 (4 votes)
Devil In Miss Jones lessons Tabs too difficult? Try these video lessons and learn fast
                DEVIL IN MISS JONES
Capitol Records




Opening:
D--------------------------------------------------------------------
B------0--(let ring)-------------------------------------------------
G----5---------------------------------------------------------------
D--------------------------------------------------------------------
G--3---------------------1-3-1---------------------------------------
D--------------------------------1---1-------------------------------
(Do that opening arpreggio real fast, almost like a strum, but
so you just barely hear each note individually... my suggestion
is to finger-pick, then grab your pick while the notes ring out...)


Verse:
D-----------------------------------------------------------------------
B-----------------------------------------------------------------------
G-----------------------------------------------------------------------
D-----------------------------------------------------------------------  repeat
G---5-5---5-5-5---5-5-5---5-5\3/8\3---8-8---8-8-8---3-3-3---3-3/5/8\3---
D---3-3---3-3-3---3-3-3---3-3\1/6\1---6-6---6-6-6---1-1-1---1-1/3/6\1---



Starts to pick up a little...
"RAhhhh, Ain't nothin to it..."
D-----------------------------------------------
B-----------------------------------------------
G-------x-1--------x-1----------x-1-------------
D-------x-1--------x-1----------x-1-------------
G---5-5-x-1----5-5-x-1------5-5-x-1---5\3/8\3---
D---3-3--------3-3----------3-3-------3\1/6\1---


"Your crack in your halo..."            "It's alright..."
D-----------------------------------------------------------------------
B-----------------------------------------------------------------------
G-------x-8----------8---------3-x-3----5/6--------------------3b4r3-1--
D-------x-8----------8---------3-x-3----5/6-hold-----------------------3
G---8-8-x-8----8-8-x-8---3-3---3-x-3----5/6----------3------------------
D---6-6--------6-6-------1-1----------------------6~-1-hold-------------



Chorus:
D--------------------------------------------------------------------
B-----------------------------------------------1-1-1-1-1------------
G--------------3b4r3-1---------------3b4r3-1----1-1-1-1-1--3b4r3-1---
D---3-3-3-3-3----------3--1-1-1-1-1----------3--1-1-1-1-1----------3-
G---5-5-5-5-5-------------3-3-3-3-3-------------1-1-1-1-1------------
D---3-3-3-3-3-------------1-1-1-1-1----------------------------------

(Chorus continued):
D-----------------------------------------------------------------------
B--3-3-3-3--------1-----------------------------------------------------
G--3-3-3-3--------1-----------------------------------------------------
D--3-3-3-3--------1-----------------------------------------------------
G--3-3-3-3--------1-----------------------------------------------------
D-----------1h3-3---3-1-------------------------------------------------

End of Chorus:
"We got no rev-o-lution, just a young American" (er, something like that..)
D-----------------------------------------------------------------------
B--1-1-1-1-1-------------3-3-3-3--------1---3/4\3--------1--3-~-----------
G--1-1-1-1-1--3b4r3-1----3-3-3-3--------1---3/4\3--------1--3-~-----------
D--1-1-1-1-1----------3--3-3-3-3--------1---3/4\3-hold---1--3-~-----------
G--1-1-1-1-1-------------3-3-3-3--------1---3/4\3--------1--3-~--3-1------
D---------------------------------1h3-3---3--------------------------1-1--
(back to verse "See no, hear no..." etc).



Ending:
D-----------------------------------------------------------------------
B--------1--------------------------------------------------------------
G--------1--------------------------------------------------------------
D--------1--------------------------------------------------------------
G--------1--------------------------------------------------------------
D--1h3-3---3-1---3~~--1~b3--b3r1----------------------------------------
                      ^
  (just bend the cr*p |
    out of this note) |
            
Submit corrections

comments powered by Disqus
↑ Back to top | Verbena Tabs for Devil In Miss Jones. Lyrics for acoustic guitar and electric guitar. Tablatures and chords are parodies/interpretations of the original songs. You may use it for private study, scholarship, research or language learning purposes only