» » »

Verbena, Aint It A Shame Tabs (ver.1)

Artists:  A B C D E F G H I J K L M N O P Q R S T U V W X Y Z # 

Aint It A Shame Tabs (ver.1)

Verbena Tabs
 Rating:
4/5 (4 votes)
Aint It A Shame lessons Tabs too difficult? Try these video lessons and learn fast
                Capitol Records


Tuning:  D G D G B D
									Bend/vibrate the cr*p out of
(Intro):			this note at the end:
D---1-2-3---------1-2-3---------1---1------            D------------
B---1-2-3---------1-2-3---------1---1------            B------------
G---1-2-3---------1-2-3---------1---1------ repeat     G------------
D---1-2-3---------1-2-3---------1---1------   4x       D------------
G---1-2-3--3-4-5--1-2-3--3-4-5--1---1------            G------------
D----------1-2-3---------1-2-3----3---3----            D---1~~~~----


(Verse):
D-------------------------------------------------------------------
B-------------------------------------------------------------------
G---------------------------1-1-1-----------------------------------
D---------------------------1-1-1-----------------------------------
G---------------------------1-1-1-----------------------------------
D--1-3-3-1-3----1-3-3-1-3-3-----------------------------------------


(Over the "Ain't it a shaaaaammmmme" part):
D-------------------------------------------------------------------
B-------------------------------------------------------------------
G---/4-\-3-\-1-/-3b-------------------------------------------------
D-------------------------------------------------------------------
G---/4-\-3-\-1-/-3b-------------------------------------------------
D-------------------------------------------------------------------
(bend that last octave real good)

(Chorus):
D--5-6-6-6-6-6--5--3--1-1-1-1-1--0--1--3-3-3-3-3--1--0--------------
B--5-6-6-6-6-6--5--3--1-1-1-1-1--0--1--3-3-3-3-3--1--0--------------
G--5-6-6-6-6-6--5--3--1-1-1-1-1--0--1--3-3-3-3-3--1--0--------------
D--5-6-6-6-6-6--5--3--1-1-1-1-1--0--1--3-3-3-3-3--1--0--------------
G--5-6-6-6-6-6--5--3--1-1-1-1-1--0--1--3-3-3-3-3--1--0--5-5-5-5-5-5-
D-------------------------------------------------------3-3-3-3-3-3-
      "It's alright    it's okay       take off    you can do it again"
			your skirt so

D--5-6-6-6-6-6--5--3--1-1-1-1-1--0--1--3-3-3-3-3-3-3-3-3-3-3-3-3-3-4-3-1-
B--5-6-6-6-6-6--5--3--1-1-1-1-1--0--1--3-3-3-3-3-3-3-3-3-3-3-3-3-3-4-3-1-
G--5-6-6-6-6-6--5--3--1-1-1-1-1--0--1--3-3-3-3-3-3-3-3-3-3-3-3-3-3-4-3-1-
D--5-6-6-6-6-6--5--3--1-1-1-1-1--0--1--3-3-3-3-3-3-3-3-3-3-3-3-3-3-4-3-1-
G--5-6-6-6-6-6--5--3--1-1-1-1-1--0--1--3-3-3-3-3-3-3-3-3-3-3-3-3-3-4-3-1-
D------------------------------------------------------------------------
      "I won't bite,    or scratch     take off    you can do it again"
		your itch	your skirt so

(Verse)

(Chorus) (twice as long as first chorus)

(Bridge thingy (after second chorus)):
D-------------------------------------------------------------------
B-------------------------------------------------------------------
G-------------------------------------------------------------------
D-------------------------------------------------------------------
G-------------------------------------------------------------------
D--3-~-~-~-~-~-~-~-~-~-~-~5-6-~-~-~-~-~-~-8-~-~-~-~-~---------------
"Do it again...           and over, amen... etc..."

(Play intro riff 4x)

(End):
D----------------
B----------------
G----------------
D----------------
G---3--5-5-3-5-/- slide up
D---1--3-3-1-3-/-
            
Submit corrections

comments powered by Disqus
↑ Back to top | Verbena Tabs for Aint It A Shame. Lyrics for acoustic guitar and electric guitar. Tablatures and chords are parodies/interpretations of the original songs. You may use it for private study, scholarship, research or language learning purposes only