» » »

Ventures, Secret Agent Man Tabs (ver.3)

Artists:  A B C D E F G H I J K L M N O P Q R S T U V W X Y Z # 

Secret Agent Man Tabs (ver.3)

Ventures Tabs
 Rating:
4.2/5 (5 votes)
Secret Agent Man lessons Tabs too difficult? Try these video lessons and learn fast
1
                This is a great song written by The Ventures, its was used in 
Ace Ventura-When Nature Calls, this is a great song to play 
for crowds, it really pumps you up, second guitarist strums an accustic guitar
while the lead plays a slightly distorted electric, sorry i only know the lead


Key: 
fp=finger pluck (with fretting hand)
h=hammer
p=pull off
hb=half bend
fb=full bend

Intro:
part 1
E:-------0---0---0----0----0----0------------|
B:-------------------------------------------|
G:---4----5---5----6----5----5----4----------|X2
D:-------------------------------------------|
A:-------------------------------------------|
E:-------------------------------------------|

Then after 2 times you play the end of the intro without the "4" at the end
part 2
E:-------0---0---0----0----0----0------------|
B:-------------------------------------------|
G:---4----5---5----6----5----5---------------|X1
D:-------------------------------------------|
A:-------------------------------------------|
E:-------------------------------------------|

(Verse 1)Then comes the singing, "there's a man who leads a life of danger"-(Guitar solo)

E:----------8--8--8--6h8---------------------|
B:-------------------------------------------|
G:-------------------------------------------|X1
D:-------------------------------------------|
A:-------------------------------------------|
E:-------------------------------------------|

"To everyone he meets he stays a stranger"-(Guitar solo)

E:----------5--5--5--3-5-3\1fp0--------------|
B:-------------------------------------------|
G:-------------------------------------------|X1
D:-------------------------------------------|
A:-------------------------------------------|
E:-------------------------------------------|

"with every move he makes"

E:-------------------------------------------| 
B:-------------------------------------------|
G:------3--3fp2fp0---------------------------|
D:-------------------------------------------|
A:-------------------------------------------|
E:-------------------------------------------|

"another chance he takes"

   E:-------------------------------------------|
   B:-------------------------------------------|
   G:------3--3fp2fp0---------------------------|
   D:-------------------------------------------|
   A:-------------------------------------------|
   E:-------------------------------------------|
"odds are he wont live to see tomorrow"

(solo) E:-------------------------------------------|
       B:-------------------------------------------|
       G:---0--3--3fp2fp0---------------------------|
       D:-------------------------------------------|
       A:-------------------------------------------|
       E:-------------------------------------------|
"Secret... agent man (solo)! Secret... agent man!(solo)"

Listen to the song and find out were to put the verse part
and then at the last part of the chorus you'll start all over again
with:

"He'll be givin you a number,          and takin away your name.

E:-----------------------------------------------------------0---0---0---0--0---0-------------0---0---0---0---0---|
B:----------------------------------------------------------------------------------------------------------------|
G:----------------------------3-3-3fp2fp0------------------4---5---5---6---5---5---4----4---5---5---6---5---5---4-|
D:----------------------------------------------------------------------------------------------------------------|
A:----------------------------------------------------------------------------------------------------------------|
E:----------------------------------------------------------------------------------------------------------------|

(Verse 2)Then after that it's the same as above but the first two guitar solos change

then here come the words again...


"bla bla blady bla bla bla bla" (sorry dont know thes words:)
Guitar solo 1:
E:----------12--15--17---17--17-15-12-----------|
B:----------------------------------------------|
G:----------------------------------------------|X1
D:----------------------------------------------|
A:----------------------------------------------|
E:----------------------------------------------|


"Bla bla blady bla bla bla blabla"
Guitar solo 2:(im not sure of this, please correct me if im wrong)
E:----------------------------------------------|
B:----------------------------------------------|
G:-------------6/9---6\1------------------------|X1
D:----------------------------------------------|
A:----------------------------------------------|
E:----------------------------------------------



"bla bla bla blabla"

                     E:-------------------------------------------|
                     B:-------------------------------------------|
                     G:------3--3fp2fp0---------------------------|
                     D:-------------------------------------------|
                     A:-------------------------------------------|
                     E:-------------------------------------------|

"bla bla bla blabla"

                     E:-------------------------------------------|
                     B:-------------------------------------------|
                     G:------3--3fp2fp0---------------------------|
                     D:-------------------------------------------|
                     A:-------------------------------------------|
                     E:-------------------------------------------|

"bla bla bla blabla bla bla blabla abla la"

(solo) E:-------------------------------------------|
       B:-------------------------------------------|
       G:---0--3--3fp2fp0---------------------------|
       D:-------------------------------------------|
       A:-------------------------------------------|
       E:-------------------------------------------|


"secret agent man!(solo)" "secret angent man!(solo)" "he'll be givin you a number (solo) 

and takin away yer name!
                   E:-------0---0---0----0----0----0------------|
                   B:-------------------------------------------|
                   G:---4----5---5----6----5----5----4----------|
                   D:-------------------------------------------|
                   A:-------------------------------------------|
                   E:-------------------------------------------|

E:-------0---0---0----0----0----0------------|
B:-------------------------------------------|
G:---4----5---5----6----5----5---------------|
D:-------------------------------------------|
A:-------------------------------------------|
E:-------------------------------------------|


and then comes Verse 3

(Verse 3)
then here come the words again...

"bla bla blady bla bla bla bla" (sorry dont know thes words:)
Guitar solo 1:
E:----------12--15--17---17--17-15-12-----------|
B:----------------------------------------------|
G:----------------------------------------------|X1
D:----------------------------------------------|
A:----------------------------------------------|
E:----------------------------------------------|

"bla bla bla blabla"

                     E:-------------------------------------------|
                     B:-------------------------------------------|
                     G:------3--3fp2fp0---------------------------|
                     D:-------------------------------------------|
                     A:-------------------------------------------|
                     E:-------------------------------------------|

"bla bla bla blabla"

                     E:-------------------------------------------|
                     B:-------------------------------------------|
                     G:-----nothing played------------------------|
                     D:-------------------------------------------|
                     A:-------------------------------------------|
                     E:-------------------------------------------|

"bla bla bla blabla bla bla blabla abla la"

                                   (solo) E:-------------------------------------------|
                                          B:-------------------------------------------|
                                          G:--0---3--3fp2fp0---------------------------|
                                          D:-------------------------------------------|
                                          A:-------------------------------------------|
                                          E:-------------------------------------------|

"secret agent man!(solo)" "secret agent man!(solo)"

he'll be givin you a number (solo) and takin away yer name!
                                                      E:-------0---0---0----0----0----0------------|
                                                      B:-------------------------------------------|
                                                      G:---4----5---5----6----5----5----4----------|
                                                      D:-------------------------------------------|
                                                      A:-------------------------------------------|
                                                      E:-------------------------------------------|

E:-------0---0---0----0----0----0------------|
B:-------------------------------------------|
G:---4----5---5----6----5----5---------------|
D:-------------------------------------------|
A:-------------------------------------------|
E:-------------------------------------------|

Then the ending solo goes like this:

E:-------------------------------------------|
B:----15--17--19fb-19hb-17hb-17hb------------|
G:-------------------------------------------|X1
D:-------------------------------------------|
A:-------------------------------------------|
E:-------------------------------------------|
            
Submit corrections

comments powered by Disqus
↑ Back to top | Ventures Tabs for Secret Agent Man. Lyrics for acoustic guitar and electric guitar. 1 Tablatures and chords are parodies/interpretations of the original songs. You may use it for private study, scholarship, research or language learning purposes only