» » »

Ventures, Pipe Line Tabs (ver.6)

Artists:  A B C D E F G H I J K L M N O P Q R S T U V W X Y Z # 

Pipe Line Tabs (ver.6)

Ventures Tabs
 Rating:
3.4/5 (5 votes)
Pipe Line lessons Tabs too difficult? Try these video lessons and learn fast
1
                The Ventures - Pipeline
Live In Japan '65
Standard E tuning
(Below is the song)


e---------------------|
B---------------------|
G---------------------|(repeat multiple times)
D---------------------|
A-----2-2-2-2-2-2-2-2-|
E-17/0-3-0-3-0-3-0-3--|


e-12~-----12~-----12~-----12~-----|
B-12~-----12~-----12~-----12~-----|
G-12~-----12~-----12~-----12~-----|(up stroke)
D-14~-----14~-----14~-----14~-----|
A-14~-----14~-----14~-----14~-----|
E---------------------------------|


e---------------------------------|
B---------------------------------|
G---------------------------------|
D--0-2-0-2-4-2-0-2--4-2-4-2-0-2-0-|
A-2-------------------------------|
E---------------------------------|


e------7-----|
B----8--10-8-|
G---9--------|
D-9----------|
A------------|
E------------|


e---------------------------------|
B---------------------------------|
G--0-2-0-2-4-2-0-2--4-2-4-2-0-2-0-|
D-2-------------------------------|
A---------------------------------|
E---------------------------------|


e---------12------|
B------13---15-13-|
G----14-----------|
D-14--------------|
A-----------------|
E-----------------|


e-------------------------|
B-------------------------|
G-4--4--4-4-4-5--5--5-5-5-|(2x)
D-4--4--4-4-4-5--5--5-5-5-|
A-2--2--2-2-2-3--3--3-3-3-|
E-------------------------|


e----------------------------------------|
B----------------------------------------|
G-4~-4~-4~--4~-4~-4~-4~--4~-4~--4~-4~-4~-|
D-4~-4~-4~--4~-4~-4~-4~--4~-4~--4~-4~-4~-|
A-2~-0~-2~--0~-2~-0~-2~--0~-2~--0~-2~-0~-|
E----------------------------------------|


e------------|
B------------|
G-2~-2~--2---|
D-2~-2~--2---|
A-0~-0~--0---|
E---3---3-3--|


e---------------------|
B---------------------|
G---------------------|(repeat multiple times)
D---------------------|
A-----2-2-2-2-2-2-2-2-|
E-17/0-3-0-3-0-3-0-3--|


e-12~-----12~-|
B-12~-----12~-|
G-12~-----12~-|(up stroke)
D-14~-----14~-|
A-14~-----14~-|
E-------------|


e---------------------------------|
B---------------------------------|
G---------------------------------|
D--0-2-0-2-4-2-0-2--4-2-4-2-0-2-0-|
A-2-------------------------------|
E---------------------------------|


e------7-----|
B----8--10-8-|
G---9--------|
D-9----------|
A------------|
E------------|


e---------------------------------|
B---------------------------------|
G--0-2-0-2-4-2-0-2--4-2-4-2-0-2-0-|
D-2-------------------------------|
A---------------------------------|
E---------------------------------|


e---------12------|
B------13---15-13-|
G----14-----------|
D-14--------------|
A-----------------|
E-----------------|


e-------------------------|
B-------------------------|
G-4--4--4-4-4-5--5--5-5-5-|(2x)
D-4--4--4-4-4-5--5--5-5-5-|
A-2--2--2-2-2-3--3--3-3-3-|
E-------------------------|


e----------------------------------------|
B----------------------------------------|
G-4~-4~-4~--4~-4~-4~-4~--4~-4~--4~-4~-4~-|
D-4~-4~-4~--4~-4~-4~-4~--4~-4~--4~-4~-4~-|
A-2~-0~-2~--0~-2~-0~-2~--0~-2~--0~-2~-0~-|
E----------------------------------------|


e----------------------------------------------------------------------------|
B------------5---------------------------------------------------------------|
G-5---------5-7-5-4---------4--7-5-4-2----------2--5-4-2-4----------4--7-5-4-|
D--7-7~--7-7-------5-5~--5-5----------3-3~--3-3------------5-5~--5-5---------|
A----------------------------------------------------------------------------|
E----------------------------------------------------------------------------|


e-----------------------------------------------------------|
B------------5----------------------------------------------|
G-5---------5-7-5-4---------4--7-5-4-2----------2--5-4-2-1~-|
D--7-7~--7-7-------5-5~--5-5----------3-3~--3-3-------------|
A-----------------------------------------------------------|
E-----------------------------------------------------------|


e---------------------|
B---------------------|
G---------------------|(repeat multiple times)
D---------------------|
A-----2-2-2-2-2-2-2-2-|
E-17/0-3-0-3-0-3-0-3--|


e-12~-----12~-|
B-12~-----12~-|
G-12~-----12~-|(up stroke)
D-14~-----14~-|
A-14~-----14~-|
E-------------|


e---------------------------------|
B---------------------------------|
G---------------------------------|
D--0-2-0-2-4-2-0-2--4-2-4-2-0-2-0-|
A-2-------------------------------|
E---------------------------------|


e------7-----|
B----8--10-8-|
G---9--------|
D-9----------|
A------------|
E------------|


e---------------------------------|
B---------------------------------|
G--0-2-0-2-4-2-0-2--4-2-4-2-0-2-0-|
D-2-------------------------------|
A---------------------------------|
E---------------------------------|


e---------12------|
B------13---15-13-|
G----14-----------|
D-14--------------|
A-----------------|
E-----------------|


e-------------------------|
B-------------------------|
G-4--4--4-4-4-5--5--5-5-5-|(2x)
D-4--4--4-4-4-5--5--5-5-5-|
A-2--2--2-2-2-3--3--3-3-3-|
E-------------------------|


e----------------------------------------|
B----------------------------------------|
G-4~-4~-4~--4~-4~-4~-4~--4~-4~--4~-4~-4~-|
D-4~-4~-4~--4~-4~-4~-4~--4~-4~--4~-4~-4~-|
A-2~-0~-2~--0~-2~-0~-2~--0~-2~--0~-2~-0~-|
E----------------------------------------|


e------------|
B------------|
G-2~-2~--2---|
D-2~-2~--2---|
A-0~-0~--0---|
E---3---3-3--|


e------0~-|
B------0~-|
G------0~-|(up stroke)
D------2~-|
A------2~-|
E-17/-----|
            
Submit corrections

comments powered by Disqus
↑ Back to top | Ventures Tabs for Pipe Line. Lyrics for acoustic guitar and electric guitar. 1 Tablatures and chords are parodies/interpretations of the original songs. You may use it for private study, scholarship, research or language learning purposes only