» » »

Ventures, House Of The Rising Sun Tabs (ver.2)

Artists:  A B C D E F G H I J K L M N O P Q R S T U V W X Y Z # 

House Of The Rising Sun Tabs (ver.2)

Ventures Tabs
 Rating:
4/5 (4 votes)
House Of The Rising Sun lessons Tabs too difficult? Try these video lessons and learn fast
1
                THE VENTURES
HOUSE OF THE RISING SUN
LEAD GUITAR


h: hammer on
p: pull off
/: slide
b: bend


INTRO:

    (AM)     (C)      (D)     (F)       (AM)      (E)       (AM)
|-----0--------0-------2--------0---------0-------------------0-----|
|----1-1------1-1-----3-3------1-1-------1-1--------0--------1-1----|
|---2---2----0---0---2---2----2---2-----2---2------1-1------2---2---|
|--2--------2-------0--------3---------2----------2---2----2-----2--|
|-0--------3--------------------------0----------2--------0---------|
|-----------------------------------------------0-------------------|
    (E)
|-----------|
|-----0-----|
|----1-1----|
|---2---2---|
|--2--------|
|-0---------|


Verse:

|------------------------------------------------------------------|
|------------------------------------------------------------------|
|------------------------------------------------------------------|
|----------0-1-0-----5h7-5h7-5-7-5--------5h7-5h7---7-5-3-5b-5-3---|
|-0-0--2-3-------0-0---------------7-5-5b---------5--------------5-|
|------------------------------------------------------------------|

|----------------------------|
|----------------------------|
|----------------------------|
|--------------3-------------|
|----------3-5--7-5----3-----|
|-3-3b-0-5---------------5-0-|


REPEAT VERSE


SOLO:

|----------------------------------------------------------------------|
|--8h10-10-10-10--8h10-10-10-10--8h10-10-10-10-------------------------|
|----------------------------------------------9--7b-7b-7b-7b-7b-7b-7b-|
|----------------------------------------------------------------------|
|----------------------------------------------------------------------|
|----------------------------------------------------------------------|

|----------------------------------------------------8-----8-----8-----|
|--------------------8h10-8-----8h10-8-----8h10-8----8-----8-----8-----|
|-7b-7b-7b-7p5---7/9--------7/9--------7/9---------7/9---7/9---7/9-----|
|--------------7-------------------------------------------------------|
|----------------------------------------------------------------------|
|----------------------------------------------------------------------|

|------------------------------------------------------8---8-10b-10b----|
|---7-5----8h10-10-10-10--8h10-10-10-10--8h10-10-10-10---10-------------|
|-------7---------------------------------------------------------------|
|-----------------------------------------------------------------------|
|-----------------------------------------------------------------------|
|-----------------------------------------------------------------------|

|--10b-10b-10b-10b-----10p8----10p8-----10-------------8----------------|
|------------------10-------10------10-----10-8--------8----------------|
|-----------------------------------------------9--5--7b--7-------------|
|-------------------------------------------------7-----------------5-0-|
|------------------------------------------------------------0-3-/7-----|
|-----------------------------------------------------------------------|

|-----------------------------------------------------------------------|
|------------------------------------8h10-10-10-10--8h10-10-10-10--8h10-|
|-----2-----------------------------------------------------------------|
|-2/4--4----------------------------------------------------------------|
|---------------3-5---7-5-----------------------------------------------|
|--------1--1/5-----0-----7-5-3b-0--------------------------------------|

|-----------------------------------------------------------------------|
|-10-10-10-------------------------------------------8h10-8-----8h10-8--|
|------------7b-7b-7b-7b-7b-7b-7b-7b-7b-7b-7p5---7/9--------7/9---------|
|----------9-----------------------------------7------------------------|
|-----------------------------------------------------------------------|
|-----------------------------------------------------------------------|

|---------------8-----------8-------------------------------------------|
|------8h10-8---8-----------8------------8h10-8------8h10-8----8h10-8---|
|--7/9---------7b-7-5---5--7b-7-5----7/9---------7/9--------7/9---------|
|---------------------7-----------7-------------------------------------|
|-----------------------------------------------------------------------|
|-----------------------------------------------------------------------|
 
|--8----8----8----8---------------------------------------|
|--8----8----8----8---------------------------------------|    
|-7b---7b---7b---7b---5-----------------------------2-----|   FADES OUT
|--------------------7--7---------------5-------2/4---4---|
|-------------------------5-7----3--3/7---7--5------------|
|------------------------------5------------------------1-|
            
Submit corrections

comments powered by Disqus
↑ Back to top | Ventures Tabs for House Of The Rising Sun. Lyrics for acoustic guitar and electric guitar. 1 Tablatures and chords are parodies/interpretations of the original songs. You may use it for private study, scholarship, research or language learning purposes only