» » »

Hokkaido Skies Tabs (ver.2)

Artists:  A B C D E F G H I J K L M N O P Q R S T U V W X Y Z # 

Hokkaido Skies Tabs (ver.2)

Ventures
Rating:
0/5 (0 votes)

Tabs too difficult? Try these video lessons and learn fast.
                        -----------------------------------------------------------

                       THE VENTURES - HOKKAIDO SKIES
             Bob Bogle, Don Wilson, Mel Taylor & Nokie Edwards
              From POPS IN JAPAN album. Released on June 1967

        -----------------------------------------------------------









     INTRO


  G|---------------------------------|---------------------------------|
  D|---------------------------------|-5-----------5-----------5---5---|
  A|-5-----------5-----------5---5---|-----------------5---------------|
  E|-----------------5---------------|---------------------------------|





  G|---------------------------------|---------------------------------|
  D|---------------------------------|-5-----------5-----------5-------|
  A|-5-----------5-----------5---5---|-----------------5---------------|
  E|-----------------5---------------|---------------------------------|





     VERSE
     00:09

  G|---------------------------------|---------------------------------|
  D|---------------------------------|---------------------------------|
  A|-5-----------5---------------3---|-5-----------5-----------5---5---|
  E|-----------------5-------5-------|-----------------5---------------|





  G|---------------------------------|---------------------------------|
  D|-5-----------5-----------5---5---|---------------------------------|
  A|-----------------5---------------|-5-----------5-----------5---5---|
  E|---------------------------------|-----------------5---------------|





  G|---------------------------------|---------------------------------|
  D|-5-----------5-----------5---5---|---------------------------------|
  A|-----------------5---------------|-5-----------5-----------5---5---|
  E|---------------------------------|-----------------5---------------|





  G|---------------------------------|---------------------------------|
  D|---------------------------------|-7-----------7-------------------|
  A|-7-----------7-------------------|-----------------7-----------7---|
  E|-----------------7---------------|---------------------------------|





  G|---------------------------------|
  D|-7-----------7-----------7---7---|
  A|-----------------7---------------|
  E|---------------------------------|





     VERSE
     00:30

  G|---------------------------------|---------------------------------|
  D|---------------------------------|---------------------------------|
  A|-5-----------5---------------0---|-5-----------5-----------5---5---|
  E|-----------------5-------5-------|-----------------5---------------|





  G|---------------------------------|---------------------------------|
  D|-5-----------5-----------5---5---|---------------------------------|
  A|-----------------5---------------|-5-----------5-----------5---5---|
  E|---------------------------------|-----------------5---------------|





  G|---------------------------------|---------------------------------|
  D|-5-----------5-----------5---5---|---------------------------------|
  A|-----------------5---------------|-5-----------5-----------5---5---|
  E|---------------------------------|-----------------5---------------|





  G|---------------------------------|---------------------------------|
  D|-7-----------7----------/7-------|---------------------------------|
  A|-----------------7---------------|-5-----------5-----------3-------|
  E|---------------------------------|-----------------5---------------|





  G|---------------------------------|
  D|---------------------------------|
  A|-5-----------5-----------5---5---|
  E|-----------------5---------------|





     BRIDGE
     00:51

  G|---------------------------------|---------------------------------|
  D|---------------------------------|---------------------------------|
  A|-3-----------3-------------------|-3-----------3-----------3---3---|
  E|-----------------3-------3---3---|-----------------3---------------|





  G|---------------------------------|---------------------------------|
  D|-3-----------3-------------------|-3-----------3-----------3---3---|
  A|-----------------3-------3---3---|-----------------3---------------|
  E|---------------------------------|---------------------------------|





  G|---------------------------------|---------------------------------|
  D|-7-----------7-------------------|-7-----------7----------/7---7---|
  A|-----------------7-------7---7---|-----------------7---------------|
  E|---------------------------------|---------------------------------|





  G|---------------------------------|---------------------------------|
  D|---------------------------------|---------------------------------|
  A|-5-----------5-------------------|-5-----------5-----------5---5---|
  E|-----------------5-------5---5---|-----------------5---------------|





  G|---------------------------------|-3-----------3-----------3---3---|
  D|-----------------3-------3---3---|-----------------3---------------|
  A|-1-----------1-------------------|---------------------------------|
  E|---------------------------------|---------------------------------|





  G|---------------------------------|---------------------------------|
  D|-3-----------3-------------------|-3-----------3-----------3---3---|
  A|-----------------3-------3---3---|-----------------3---------------|
  E|---------------------------------|---------------------------------|





  G|---------------------------------|---------------------------------|
  D|-7-----------7-------------------|-7-----------7-------------------|
  A|-----------------7-------7---7---|-----------------7-------7---7---|
  E|---------------------------------|---------------------------------|





  G|---------------------------------|---------------------------------|
  D|-7-----------7-------------------|-7-----------7-----------7---7---|
  A|-----------------7-------7---7---|-----------------7---------------|
  E|---------------------------------|---------------------------------|





     VERSE
     01:28 .....



     OUTRO
     01:46

  G|---------------------------------|---------------------------------|
  D|-5-----------5-----------5---5---|---------------------------------|
  A|-----------------5---------------|-5-----------5-----------5---5---|
  E|---------------------------------|-----------------5---------------|





  G|---------------------------------|---------------------------------|
  D|/5-----------5-----------5---5---|---------------------------------|
  A|-----------------5---------------|-5-----------5-----------5---5---|
  E|---------------------------------|-----------------5---------------|





  G|---------------------------------|---------------------------------|
  D|-5-----------5-----------5---5---|---------------------------------|
  A|-----------------5---------------|-5-----------5-----------5---5---|
  E|---------------------------------|-----------------5---------------| ....
            
Tabs too difficult? Try these video lessons and learn fast.




comments powered by Disqus
↑ Back to top | Tablatures and chords are parodies/interpretations of the original songs. You may use it for private study, scholarship, research or language learning purposes only