» » »

Diamond Head Tabs (ver.1)

Artists:  A B C D E F G H I J K L M N O P Q R S T U V W X Y Z # 

Diamond Head Tabs (ver.1)

Ventures
Rating:
4/5 (4 votes)

Tabs too difficult? Try these video lessons and learn fast.
                DIAMOND HEAD


The Ventures


Written by Dan Hamilton


INTRO


e|---------------------------------|---------------------------------|
B|---------------------------------|---------------------------------|
G|---------------------------------|---------------------------------|
D|---------------------------------|---------------------------------|
A|---------------------------------|---------------------------------|
E|-0-0-0-0-3-3-3-3-0-0-0-0-3-3-3-3-|-0-0-0-0-3-3-3-3-0-0-0-0-3-3-3-3-|
  P.M. ..............................................................




VERSE



e|---------------------------------|---------------------------------|
B|---------------------------------|---------------------------------|
G|---------------------5-----------|-4---------------4---5---4-------|
D|-7-----------7-----------7-------|5---------------------------5/6--|
A|---------------------------------|---------------------------------|
E|---------------------------------|---------------------------------|




e|-----5-----------7-----------8---|---------7-----------5-----------|
B|---------5-----------5-----------|-5-----------5-----------5-------|
G|-------------5-----------5-------|-----5-----------5-----------5---|
D|-7-------------------------------|---------------------------------|
A|---------------------------------|---------------------------------|
E|---------------------------------|---------------------------------|




B|---------------------------------|---------------------------------|
G|---------------------5-----------|-4---------------4---5---4-------|
D|-7-----------7-----------7-------|5---------------------------5/6--|
A|---------------------------------|---------------------------------|
E|---------------------------------|---------------------------------|




e|-----5-----------7-----------8---|---------7-----------------------|
B|---------5-----------5-----------|-5-----------5-------------------|
G|-------------5-----------5-------|-----5-----------5-------5---6---|
D|-7-------------------------------|---------------------7-----------|
A|---------------------------------|---------------------------------|
E|---------------------------------|---------------------------------|




e|---------------------------------|---------------------------------|
B|---------------------------------|---------------------------------|
G|-7---7-5-----5---7---7-5-----5---|-7---7-5-----5---7---7-5---------|
D|---------7---------------7-------|---------7---------------7-------|
A|---------------------------------|---------------------------------|
E|---------------------------------|---------------------------------|
  P.M. ........................................................



e|---------------------------------|---------------------------------|
B|-10------8-----------------------|---------------------------------|
G|----------------\7-------5-------|---------------------------------|
D|---------------------------------|-7-------5-----------------------|
A|---------------------------------|----------------\5-------3-------|
E|---------------------------------|---------------------------------|




e|---------------------------------|---------------------------------|
B|---------------------------------|---------------------------------|
G|-7---7-5-----5---7---7-5-----5---|-7---7-5-----5---7---7-5---------|
D|---------7---------------7-------|---------7---------------7-------|
A|---------------------------------|---------------------------------|
E|---------------------------------|---------------------------------|
  P.M. ........................................................



e|---------------------------------|---------------------------------|
B|---------------------------------|---------------------------------|
G|-9-------7-----------------------|---------------------------------|
D|----------------\7------5--------|---------------------------------|
A|---------------------------------|---------------------------------|
E|---------------------------------|---------------------------------|




VERSE



e|---------------------------------|---------------------------------|
B|---------------------------------|---------------------------------|
G|---------------------5-----------|-4---------------4---5---4-------|
D|-7-----------7-----------7-------|5---------------------------5/6--|
A|---------------------------------|---------------------------------|
E|---------------------------------|---------------------------------|




e|-----5-----------7-----------8---|---------7-----------5-----------|
B|---------5-----------5-----------|-5-----------5-----------5-------|
G|-------------5-----------5-------|-----5-----------5-----------5---|
D|-7-------------------------------|---------------------------------|
A|---------------------------------|---------------------------------|
E|---------------------------------|---------------------------------|




B|---------------------------------|---------------------------------|
G|---------------------5-----------|-4---------------4---5---4-------|
D|-7-----------7-----------7-------|5---------------------------5/6--|
A|---------------------------------|---------------------------------|
E|---------------------------------|---------------------------------|




e|-----5-----------7-----------8---|---------7-----------------------|
B|---------5-----------5-----------|-5-----------5-------------------|
G|-------------5-----------5-------|-----5-----------5-------5---6---|
D|-7-------------------------------|---------------------7-----------|
A|---------------------------------|---------------------------------|
E|---------------------------------|---------------------------------|




e|---------------------------------|---------------------------------|
B|---------------------------------|---------------------------------|
G|-7---7-5-----5---7---7-5-----5---|-7---7-5-----5---7---7-5---------|
D|---------7---------------7-------|---------7---------------7-------|
A|---------------------------------|---------------------------------|
E|---------------------------------|---------------------------------|
  P.M. ........................................................



e|---------------------------------|---------------------------------|
B|-10------8-----------------------|---------------------------------|
G|----------------\7-------5-------|---------------------------------|
D|---------------------------------|-7-------5-----------------------|
A|---------------------------------|----------------\5-------3-------|
E|---------------------------------|---------------------------------|




e|---------------------------------|---------------------------------|
B|---------------------------------|---------------------------------|
G|-7---7-5-----5---7---7-5-----5---|-7---7-5-----5---7---7-5---------|
D|---------7---------------7-------|---------7---------------7-------|
A|---------------------------------|---------------------------------|
E|---------------------------------|---------------------------------|
  P.M. ........................................................



e|---------------------------------|---------------------------------|
B|---------------------------------|---------------------------------|
G|-9-------7-----------------------|---------------------------------|
D|----------------\7------5--------|---------------------------------|
A|---------------------------------|---------------------------------|
E|---------------------------------|---------------------------------|




BRIDGE



e|-10--------------13--------------|-10--------------13--------------|
B|---------------------------------|---------------------------------|
G|---------------------------------|---------------------------------|
D|---------------------------------|---------------------------------|
A|---------------------------------|---------------------------------|
E|---------------------------------|---------------------------------|




e|---------------------------------|---------------------------------|
B|-10------8-----------------------|---------------------------------|
G|----------------\7-------5-------|---------------------------------|
D|---------------------------------|-7-------5-----------------------|
A|---------------------------------|----------------\5-------3-------|
E|---------------------------------|---------------------------------|




e|-10--------------13--------------|-10--------------13--------------|
B|---------------------------------|---------------------------------|
G|---------------------------------|---------------------------------|
D|---------------------------------|---------------------------------|
A|---------------------------------|---------------------------------|
E|---------------------------------|---------------------------------|




e|---------------------------------|---------------------------------|
B|---------------------------------|---------------------------------|
G|---------------------------------|---------------------------------|
D|-9---9---9---9---9---9---9---9---|-9---9---9---9---9---9---9---9---|
A|-7---7---7---7---7---7---7---7---|-7---7---7---7---7---7---7---7---|
E|---------------------------------|---------------------------------|




VERSE



e|---------------------------------|---------------------------------|
B|---------------------------------|---------------------------------|
G|---------------------5-----------|-4---------------4---5---4-------|
D|-7-----------7-----------7-------|5---------------------------5/6--|
A|---------------------------------|---------------------------------|
E|---------------------------------|---------------------------------|




e|-----5-----------7-----------8---|---------7-----------5-----------|
B|---------5-----------5-----------|-5-----------5-----------5-------|
G|-------------5-----------5-------|-----5-----------5-----------5---|
D|-7-------------------------------|---------------------------------|
A|---------------------------------|---------------------------------|
E|---------------------------------|---------------------------------|




B|---------------------------------|---------------------------------|
G|---------------------5-----------|-4---------------4---5---4-------|
D|-7-----------7-----------7-------|5---------------------------5/6--|
A|---------------------------------|---------------------------------|
E|---------------------------------|---------------------------------|




e|-----5-----------7-----------8---|---------7-----------------------|
B|---------5-----------5-----------|-5-----------5-------------------|
G|-------------5-----------5-------|-----5-----------5-------5---6---|
D|-7-------------------------------|---------------------7-----------|
A|---------------------------------|---------------------------------|
E|---------------------------------|---------------------------------|




e|---------------------------------|---------------------------------|
B|---------------------------------|---------------------------------|
G|-7---7-5-----5---7---7-5-----5---|-7---7-5-----5---7---7-5---------|
D|---------7---------------7-------|---------7---------------7-------|
A|---------------------------------|---------------------------------|
E|---------------------------------|---------------------------------|
  P.M. ........................................................



e|---------------------------------|---------------------------------|
B|-10------8-----------------------|---------------------------------|
G|----------------\7-------5-------|---------------------------------|
D|---------------------------------|-7-------5-----------------------|
A|---------------------------------|----------------\5-------3-------|
E|---------------------------------|---------------------------------|




e|---------------------------------|---------------------------------|
B|---------------------------------|---------------------------------|
G|-7---7-5-----5---7---7-5-----5---|-7---7-5-----5---7---7-5---------|
D|---------7---------------7-------|---------7---------------7-------|
A|---------------------------------|---------------------------------|
E|---------------------------------|---------------------------------|
  P.M. ........................................................



e|---------------------------------|---------------------------------|
B|---------------------------------|---------------------------------|
G|-9-------7-----------------------|---------------------------------|
D|----------------\7------5--------|---------------------------------|
A|---------------------------------|---------------------------------|
E|---------------------------------|---------------------------------|




OUTRO



e|---------------------------------|---------------------------------|
B|---------------------------------|---------------------------------|
G|---------------------5-----------|-4---------------4---5---4-------|
D|-7-----------7-----------7-------|5---------------------------5/6--|
A|---------------------------------|---------------------------------|
E|---------------------------------|---------------------------------|




e|-----5-----------7-----------8---|---------7-----------5-----------|
B|---------5-----------5-----------|-5-----------5-----------5-------|
G|-------------5-----------5-------|-----5-----------5-----------5---|
D|-7-------------------------------|---------------------------------|
A|---------------------------------|---------------------------------|
E|---------------------------------|---------------------------------|




e|---------------------------------|---------------------------------|
B|---------------------------------|---------------------------------|
G|---------------------5-----------|-4---------------4---5---4-------|
D|-7-----------7-----------7-------|5---------------------------5/6--|
A|---------------------------------|---------------------------------|
E|---------------------------------|---------------------------------|




e|-----5-----------7-----------8---|---------7-----------5-----------|
B|---------5-----------5-----------|-5-----------5-----------5-------|
G|-------------5-----------5-------|-----5-----------5-----------5---|
D|-7-------------------------------|---------------------------------|
A|---------------------------------|---------------------------------|
E|---------------------------------|---------------------------------|




e|---------------------------------|---------------------------------|
B|---------------------------------|---------------------------------|
G|---------------------5-----------|-4---------------4---5---4-------|
D|-7-----------7-----------7-------|5---------------------------5/6--|
A|---------------------------------|---------------------------------|
E|---------------------------------|---------------------------------|




e|-----5-----------7-----------8---|---------7-----------5-----------|
B|---------5-----------5-----------|-5-----------5-----------5-------|
G|-------------5-----------5-------|-----5-----------5-----------5---|
D|-7-------------------------------|---------------------------------|
A|---------------------------------|---------------------------------|
E|---------------------------------|---------------------------------|
                                                             FADE OUT
            
Tabs too difficult? Try these video lessons and learn fast.




comments powered by Disqus
↑ Back to top | Tablatures and chords are parodies/interpretations of the original songs. You may use it for private study, scholarship, research or language learning purposes only