» » »

Besame Mucho Twist Tabs (ver.1)

Artists:  A B C D E F G H I J K L M N O P Q R S T U V W X Y Z # 

Besame Mucho Twist Tabs (ver.1)

Ventures
Rating:
0/5 (0 votes)

Hard to play? Try these video lessons and learn fast.
                heres one of my favorite ventures songs had to tab it myself 


     "Besame Mucho" by The Ventures

intro
|-5--7-8-|-5--5--7-8--5-7--|--3--3--3--5-7-|--1--1--3--5--1--3--|--0--0----|
|-5------|-5---------------|--3------------|--1-----------------|--0-------|
|-5------|-5---------------|--4------------|--2-----------------|--1-------|
|--------|-7---------------|--5------------|--3-----------------|--2-------|
|--------|-7---------------|--5------------|--3-----------------|--2-------|
|--------|-5---------------|--3------------|--1-----------------|--0-------|

build up 
|-------------------------------------------------|
|-------------------------------------------------|
|-------------------------------------------------|
|--/2-2-/2-2-2-2--/2-2-/2-2-2-2--/2-2-/2-2-2-2-2--|
|--/2-2-/2-2-2-2--/2-2-/2-2-2-2--/2-2-/2-2-2-2-2--|
|-------------------------------------------------|

verse 1
|-------------|------------------|----------------------------5-7-|
|-------------|------------------|---------5--5-5--6--6-6--8------|
|-------------|------4-5--/9--7~-|-7--7-7-------------------------|
|-----7-7~----|-6-7--------------|--------------------------------|
|-0~----------|------------------|--------------------------------|
|-------------|------------------|--------------------------------|
descending riff
|----0------3------1-------0--|
|----1------0------1-------0--|
|----2------0------2-------1--|
|----2------0------3-------2--|
|-0--0------2------3-------2--|
|-------3---3--1---1---0---0--|
verse 2
|-----5-----5-----------|--5-------------|----------------------------------|
|--------5-----5--------|-----8-6--5--3~-|--8b--5---------------------------|
|-----------------5-----|----------------|----------7-5------7b-7b-7-5------|
|--------------------7~-|----------------|--------------7-5-------------7-5-|
|-0~--------------------|----------------|----------------------------------|
|-----------------------|----------------|----------------------------------|

|-----------------------|
|-----------------------|
|-----------------------|
|-----7~----5--7~----5--|
|--0~----7---------7----|
|-----------------------|
 descending riff
|----0------3------1-------0--|
|----1------0------1-------0--|
|----2------0------2-------1--|
|----2------0------3-------2--|
|-0--0------2------3-------2--|
|-------3---3--1---1---0---0--|



verse 1 repeat
|-------------|------------------|----------------------------5-7-|
|-------------|------------------|---------5--5-5--6--6-6--8------|
|-------------|------4-5--/9--7~-|-7--7-7-------------------------|
|-----7-7~----|-6-7--------------|--------------------------------|
|-0~----------|------------------|--------------------------------|
|-------------|------------------|--------------------------------|
descending riff
|----0------3------1-------0--|
|----1------0------1-------0--|
|----2------0------2-------1--|
|----2------0------3-------2--|
|-0--0------2------3-------2--|
|-------3---3--1---1---0---0--|
verse 2
|-----5-----5-----------|--5-------------|---------------------------------------|
|--------5-----5--------|-----8-6--5--3~-|--8b-8b-8b-5-----5------5--------------|
|-----------------5-----|----------------|---------------7b-----7b-----7-5-------|
|--------------------7~-|----------------|-----------------------------------7-5-|
|-0~--------------------|----------------|---------------------------------------|
|-----------------------|----------------|---------------------------------------|

|-----------------|
|-----------------|
|-----------------|
|-----7~----5--7--|
|--0~----7--------|
|-----------------|

drum roll and then the chords
|--1-1-1-1--0-0-0-0--0-0-0-0--0-0-0-0--|---1-1-1-1--0-0-0-0--0-0-0-0----|
|--3-3-3-3--1-1-1-1--0-0-0-0--1-1-1-1--|---3-3-3-3--1-1-1-1--0-0-0-0----|
|--2-2-2-2--2-2-2-2--1-1-1-1--2-2-2-2--|---2-2-2-2--2-2-2-2--1-1-1-1----|
|--0-0-0-0--2-2-2-2--2-2-2-2--2-2-2-2--|---0-0-0-0--2-2-2-2--2-2-2-2----|
|-----------0-0-0-0--2-2-2-2--0-0-0-0--|------------0-0-0-0--2-2-2-2----|
|--------------------0-0-0-0-----------|---------------------0-0-0-0----|

build up to key change
|--------------------------------------------------------------|
|--------------------------------------------------------------|
|--------------------------------------------------------------|
|--/2-2-/2-2-2-2--/3-3-/3-3-3-3--/4-4-/4-4-4-4-/5-5-/5-5-5-5---|
|--/2-2-/2-2-2-2--/3-3-/3-3-3-3--/4-4-/4-4-4-4-/5-5-/5-5-5-5---|
|--------------------------------------------------------------|

|------------|-----------------------|---------------------------------8-10---|
|------------|-----------------------|-------------8--8-8--9--9-9--11---------|
|------------|--------7-8--/12--10~--|-10--10-10------------------------------|
|----10-10~--|--9-10-----------------|----------------------------------------|
|------------|-----------------------|----------------------------------------|
|-8----------|-----------------------|----------------------------------------|

|----8------6------4------3-|
|----8------6------4------3-|
|----8------7------5------4-|
|----10-----8------6------5-|
|----10-----8------6------5-|
|-8--8---6--6---4--4---3--3-|

|---8----8----------|-8----------------|---------------------------------------|
|-----8----8--------|----11--9--8--6~--|-11b~----------------------------------|
|------------8------|------------------|------10b~-8-----10b-10b--10-8---------|
|---------------10~-|------------------|--------------10----------------10-8---|
|-------------------|------------------|---------------------------------------|
|-8-----------------|------------------|---------------------------------------|

|---------------|
|---------------|
|---------------|
|-10~----8--10~-|
|----10---------|
|---------------|

|-----11-13--13b-13b--13b-11-----------------------------------------------------------|
|-/13--------------------------13-11--8--------8---------------------------------------|
|-----------------------------------------10b-----10-8---------------------------------|
|-------------------------------------------------------10-8--10~-10h8-----8------10---|
|-----------------------------------------------------------------------10-----10------|
|--------------------------------------------------------------------------------------|

|-3~~~~-|
|-4~~~~-|
|-5~~~~-|
|-5~~~~-|
|-3~~~~-|
|-------|

and thats all! amazing version of this song hope this tab helps! it took me forever to write!
keep rockin'
-bertman!!!
            
Hard to play? Try these video lessons and learn fast. | Correct




comments powered by Disqus
↑ Back to top | Tablatures and chords are parodies/interpretations of the original songs. You may use it for private study, scholarship, research or language learning purposes only