» » »

Ventures, Apache Tabs (ver.3)

Artists:  A B C D E F G H I J K L M N O P Q R S T U V W X Y Z # 

Apache Tabs (ver.3)

Ventures Tabs
Rating:
5/5 (2 votes)
Apache lessons Tabs too difficult? Try these video lessons and learn fast
                Tuning: Standard [EADGBe]

This is the solo guitar part.

I think the second guitar plays 
A5 D5 A5 D5 & so on.


              Riff 1
e|----------------------17-15------|
B|-------15b16r15-------------17---|
G|-14-17----------14-17------------|
D|---------------------------------|
A|---------------------------------|
E|---------------------------------|
  
              Riff 2
e|---------------------------------|
B|---------------------------------|
G|---------------------------------|
D|---------------------------------|
A|-7/12-\7-/12-\9-7-5-7------------|
E|---------------------------------|

              Riff 3
e|---------------------------------|
B|-------15b16r15-15-15------------|
G|-14-17----------------17p14-14---|
D|---------------------------------|
A|---------------------------------|
E|---------------------------------|

              Riff 4
e|-10-13-15b16r15-15-15-15p13------|
B|----------------------------15---|
G|---------------------------------|
D|---------------------------------|
A|---------------------------------|
E|---------------------------------|

              Riff 5
e|---------------------------------|
B|---------------------------------|
G|---------------------------------|
D|--333---333---333---333-3-2------| 
A|-3---333---333---333-------0-----| 
E|---------------------------------|

              Riff 6
E|--------------------12-10-8------| 
B|----------------------------10---| 
G|---------5-7-9-7-5---------------| 
D|--7-10-9----------7--------------| 
A|-8-------------------------------| 
E|---------------------------------| 

Enjoy!
            

comments powered by Disqus
↑ Back to top | Ventures Tabs for Apache. Lyrics for acoustic guitar and electric guitar. Tablatures and chords are parodies/interpretations of the original songs. You may use it for private study, scholarship, research or language learning purposes only