» » »

Ventures, Apache Tabs (ver.2)

Artists:  A B C D E F G H I J K L M N O P Q R S T U V W X Y Z # 

Apache Tabs (ver.2)

Ventures Tabs
Rating:
0/5 (0 votes)
Apache lessons Tabs too difficult? Try these video lessons and learn fast
                The Ventures 
Apache 
  
 
E|-----------------17-15------------------17-15----| 
B|-10-13-15-10-13------17--10-13-15-10-13-------17-| 
G|-------------------------------------------------| 
D|-------------------------------------------------| 
A|-------------------------------------------------| 
E|-------------------------------------------------| 
 
E|-------------8-8^10-8-8^10-8-----------| 
B|-----------------------------10--------| 
G|---------------------------------------| 
D|--7-7----------------------------------| 
A|-7-7-9-7-5-7---------------------------| 
E|---------------------------------------| 
 
E|-------------8-8^10-8-8^10-8-----------| 
B|-----------------------------10--------| 
G|---------------------------------------| 
D|--7-7----------------------------------| 
A|-7-7-9-7-5-7---------------------------| 
E|---------------------------------------| 
 
E|--------------10-13-15-13-15-13---| 
B|-------------------------------15-| 
G|--7-7-----------------------------| 
D|-7-7-9-7-5-7----------------------| 
A|----------------------------------| 
E|----------------------------------| 
 
E|---------------------------------------| 
B|--------------10-13-15-13-15-13--------| 
G|------------------------------14-------| 
D|--7-7----------------------------------| 
A|-7-7-9-7-5-7---------------------------| 
E|---------------------------------------| 
 
E|---------------------------------------| 
B|---------------------------------------| 
G|---------------------------------------| 
D|--333---333---333---333-3-2------------| 
A|-3---333---333---333-------0-----------| 
E|---------------------------------------| 
 
E|---------------------------------------| 
B|---------------------------------------| 
G|---------------------------------------| 
D|--333---333---333---333-3-2------------| 
A|-3---333---333---333-------0-----------| 
E|---------------------------------------| 
 
E|--------------------12-10-8------------| 
B|----------------------------10---------| 
G|---------5-7-9-7-5---------------------| 
D|--7-10-9----------7--------------------| 
A|-8-------------------------------------| 
E|---------------------------------------| 
 
 
 
E|--------------------12-10-8------------| 
B|----------------------------10---------| 
G|---------5-7-9-7-5---------------------| 
D|--7-10-9----------7--------------------| 
A|-8-------------------------------------| 
E|---------------------------------------| 
 
E|---------------------------------------| 
B|---------------------------------------| 
G|---------------------------------------| 
D|--333---333---333---333-3-2------------| 
A|-3---333---333---333-------0-----------| 
E|---------------------------------------| 
 
E|---------------------------------------| 
B|---------------------------------------| 
G|---------------------------------------| 
D|--333---333---333---333-3-2------------| 
A|-3---333---333---333-------0-----------| 
E|---------------------------------------| 
 
E|-17-17-17-17-17-17-17-17-12-12-12-12---| 
B|---------------------------------------| 
G|---------------------------------------| 
D|---------------------------------------| 
A|---------------------------------------| 
E|---------------------------------------| 
 
E|17-17-17-17-14-14-14-14-12-12-12-12-10-10-10-10| 
B|-----------------------------------------------| 
G|-----------------------------------------------| 
D|-----------------------------------------------| 
A|-----------------------------------------------| 
E|-----------------------------------------------| 
 
E|-12(16x)-------------------------------| 
B|---------------------------------------| 
G|---------------------------------------| 
D|---------------------------------------| 
A|---------------------------------------| 
E|---------------------------------------| 
 
E|-17-17-17-17-17-17-17-17-12-12-12-12---| 
B|---------------------------------------| 
G|---------------------------------------| 
D|---------------------------------------| 
A|---------------------------------------| 
E|---------------------------------------| 
 
E|17-17-17-17-14-14-14-14-12-12-12-12-10-10-10-10| 
B|-----------------------------------------------| 
G|-----------------------------------------------| 
D|-----------------------------------------------| 
A|-----------------------------------------------| 
E|-----------------------------------------------| 
 
E|-12(16x)-------------------------------| 
B|---------------------------------------| 
G|---------------------------------------| 
D|---------------------------------------| 
A|---------------------------------------| 
E|---------------------------------------| 
 
E|----------------------------------| 
B|----------------------------------| 
G|--7-7-----------------------------| 
D|-7-7-9-7-5-7----------------------| 
A|----------------------------------| 
E|----------------------------------| 
 
E|-17-17-17-17-17-17-17-17-12-12-12-12---| 
B|---------------------------------------| 
G|---------------------------------------| 
D|---------------------------------------| 
A|---------------------------------------| 
E|---------------------------------------| 
 
E|17-17-17-17-14-14-14-14-12-12-12-12-10-10-10-10| 
B|-----------------------------------------------| 
G|-----------------------------------------------| 
D|-----------------------------------------------| 
A|-----------------------------------------------| 
E|-----------------------------------------------| 
 
E|-12(16x)-------------------------------| 
B|---------------------------------------| 
G|---------------------------------------| 
D|---------------------------------------| 
A|---------------------------------------| 
E|---------------------------------------| 
 
E|--------------------12-10-8------------| 
B|----------------------------10---------| 
G|---------5-7-9-7-5---------------------| 
D|--7-10-9----------7--------------------| 
A|-8-------------------------------------| 
E|---------------------------------------| 
 
E|--------------------12-10-8-6------------| 
B|-----------------------------8-5---------| 
G|---------5-7-9-7-5--------------7-5------| 
D|--7-10-9----------7-----------------8-7--| 
A|-8---------------------------------------| 
E|-----------------------------------------| 
 
E|--------------------12-10-8------------| 
B|----------------------------10---------| 
G|---------5-7-9-7-5---------------------| 
D|--7-10-9----------7--------------------| 
A|-8-------------------------------------| 
E|---------------------------------------| 
 
E|---------------------------------------| 
B|---------------------------------------| 
G|---------------------------------------| 
D|--333---333---333---333-3-2------------| 
A|-3---333---333---333-------0-----------| 
E|---------------------------------------| 
 
E|---------------------------------------| 
B|---------------------------------------| 
G|---------------------------------------| 
D|--333---333---333---333-3-2------------| 
A|-3---333---333---333-------0-----------| 
E|---------------------------------------| 
 
E|-----------------17-15------------------17-15----| 
B|-10-13-15-10-13------17--10-13-15-10-13-------17-| 
G|-------------------------------------------------| 
D|-------------------------------------------------| 
A|-------------------------------------------------| 
E|-------------------------------------------------| 
 
E|-----------------17-15------------------17-15----| 
B|-10-13-15-10-13------17--10-13-15-10-13-------17-| 
G|-------------------------------------------------| 
D|-------------------------------------------------| 
A|-------------------------------------------------| 
E|-------------------------------------------------| 
 

 
            

comments powered by Disqus
↑ Back to top | Ventures Tabs for Apache. Lyrics for acoustic guitar and electric guitar. Tablatures and chords are parodies/interpretations of the original songs. You may use it for private study, scholarship, research or language learning purposes only