» » »

Vent, Stalker Bass tabs (ver.1)

Artists:  A B C D E F G H I J K L M N O P Q R S T U V W X Y Z # 

Stalker Bass tabs (ver.1)

Vent Tabs
 Rating:
4/5 (4 votes)
Stalker lessons Tabs too difficult? Try these video lessons and learn fast
1
                Intro starts with just guitar, then play chorus only 2x

Chorus/Intro
G|-------------------------------------------------|
D|-------------------------------------------------|  x4
A|--------5-5--7-7--7-7---------5-5--7-7--12-12----|
E|---5-5-------------------5-5---------------------|

Verse
G|-------------------------------------------------------|
D|-------------------------------------------------------|  x2
A|-------------------------------------------------------|
E|---7-7---7-7---5-5---3-3---7-7---7-7---3-3---0-0-/9----|

G|-----------------------------|
D|-----------------------------| <==Play this in between the above
A|-----------------------------|
E|---7-7---7-7-9x9-5-5--3-3----|

Bridge
G|----------------------------------------------|
D|----------------------------------------------|  x2
A|---7-7-7-7-7-7-7-7-12-12-12-12-12-12-12-12----|
E|----------------------------------------------|

G|----------------------------------------------|
D|----------------------------------------------|  x2
A|---7--7--7--77-9-12--12--0h12--0h12-----------|
E|----------------------------------------------|

End on E|-5-

Order:
Chorus
Verse
Chorus
Verse
Chorus
Bridge
Chorus

h=hammer on
x=muted note
/=slide up
            
Submit corrections

comments powered by Disqus
↑ Back to top | Vent Bass for Stalker. Lyrics for acoustic guitar and electric guitar. 1 Tablatures and chords are parodies/interpretations of the original songs. You may use it for private study, scholarship, research or language learning purposes only