>
 >
Remedy

Remedy Guitar Tabs

Vent - Remedy chords, tabs, tablatures, lyrics

Guitar lessons | Add/correct | Request | Top 50 tabs Artists:  A B C D E F G H I J K L M N O P Q R S T U V W X Y Z 0-9

Remedy Guitar Tabs – Vent

CD, Sheet music, Poster

Do you like Remedy? Share with your friends now
Tabs
Vent - remedy (standard tuning)

Well, i'v searched the web an never been able 2 find ne 'vent/audiovent' tabs.
so i decided 2 put one 2gether myself ;).. hope ya like it. (e-mail me at


e|--0----0---0---0---0------------------------------
g|--0---0-0-0-0-0-0-0-0-----------------------------
b|--5--5---5---5---5----5555---------------5555-999-
d|----------------------5555-222-333333-55-5555-999-
a|----------------------3333-222-333333-55-3333-777-
E|---------------------------000-111111-33----------

e|------------------|        
g|------------------|
b|1010101010101010--|
d|1010101010101010--|intro. 
a|8-8-8-8-8-8-8-8---|
E|------------------|

e|--xx0-xx0-xx0-xx0-|
g|--xx7-xx7-xx5-xx5-|
b|--xx5-xx5-xx5-xx5-|
d|------------------|verse.
a|------------------|
E|------------------|

e|---------------------------------|
g|---------------------------------|
b|-------------------------9--5-4--|
d|10101010-666-55555555----10-6-5--|pre-chorus.
a|10101010-666-55555555-x3-8--6-5--|
E|8-8-8-8--444-33333333----8--4-3--|
  ^----palm mute------^

e|------------------------------------------------|
g|------------------------------------------------|
b|--5555-000-----------5555-999-1010101010101010--|
d|--5555-222-33333333--5555-999-1010101010101010--|chorus. (up/down
a|--3333-222-33333333--3333-777-8-8-8-8-8-8-8-8---|        strums)
E|-------000-11111111-----------------------------|

e|---------------------------------------------------|
g|---------------------------------------------------|
b|--5x55xx5x6----------------------------------------|
d|--5x55xx5x6-x2-6-66666-6-66666-6-6666666666666666--|interlude.
a|--3x33xx3x4----6-66666-6-66666-6-6666666666666666--|
E|---------------0h44444-0h44444-0h4444444444444444--|

e|---------------------------------------
g|---------------------------------------
b|--5555-444-555555-7-5555-444-222222-4--
d|---------------------------------------
a|---------------------------------------
E|---------------------------------------

e|--------------------------------------|
g|--------------------------------------|
b|--5555-444-555555-7-5555-777-5555555--|
d|--------------------------------------|solo.
a|--------------------------------------|
E|--------------------------------------|

e|--------------------------------------------------------|
g|--------------------------------------------------------|
b|--5555-000----------5555-999-101010101010101010101010-5-|
d|--5555-222-33333333-5555-999-101010101010101010101010-5-|outro.
a|--3333-222-33333333-3333-777-8-8-8-8-8-8-8-8-8-8-8-8--3-|
E|-------000-11111111-------------------------------------|

song structure:
intro x2
verse x4 
pre-chorus
chorus x2
verse x4
pre-chorus
chorus x2
interlude
solo.
outro





Comments


Popular Vent tabs & chords
Beautiful Addiction Bass Tabs
Stalker Bass Tabs
The Energy Bass Tabs
When The Rain Bass Tabs


Song lyrics



↑ Back to top | Tablatures and chords are parodies/interpretations of the original songs. You may use it for private study, scholarship, research or language learning purposes only
© 2014 AZChords.com Contact us | Privacy policy | DMCA | Add/correct tabs | Request tabs | Top 50 tabs