» » »

Vent, Beautiful Addiction Bass tabs (ver.1)

Artists:  A B C D E F G H I J K L M N O P Q R S T U V W X Y Z # 

Beautiful Addiction Bass tabs (ver.1)

Vent Tabs
 Rating:
4/5 (4 votes)
Beautiful Addiction lessons Tabs too difficult? Try these video lessons and learn fast
1
                INTRO/CHORUS
G-------------------------------------------------------------------------
D-------------------------------------------------------------------------
A---2---2-2-2-2—-----------------2---2-2-2-2-----------------------     x 2 
D------------------5-5-5----0-2-------------------5-5-5----7---------

VERSE 1
“Change the bag, this IV’s draining…”
G-----------------------------------------------------------------------
D—--0---12-11-9-------5----------//12-14------------------------      
A—2------------------------5-----------------------------------------
D-----------------------------------------------------------------------

G-----------------------------------------------------------------------
D—--0---12-11-9-------5----------//12-14//----------------------      
A—2------------------------5-----------------------------------------
D-----------------------------------------------------------------------

PRE-CHORUS
“Inebriated, broken, jaded…”
G-----------------------------------------------------------------------
D-----------------------------------------------------------------------
A—2-2-0-2---0-2-2-0-2---------------------------------------------    x 2
D----------------------------5-5-4-5---4-5-5-4-7-------------------
	
CHORUS
“You don’t need your words to sound like this…”
G-------------------------------------------------------------------------
D-------------------------------------------------------------------------
A---2---2-2-2-2—-----------------2---2-2-2-2-----------------------     x 2 
D------------------5-5-5----0-2-------------------5-5-5----7---------

VERSE 2
“Maybe it’s manipulation…”
G-----------------------------------------------------------------------
D—--0---12-11-9-------5----------//12-14------------------------      
A—2------------------------5-----------------------------------------    x 2
D-----------------------------------------------------------------------

G-----------------------------------------------------------------------
D—--0---12-11-9-------5----------//12-14//----------------------      
A—2------------------------5-----------------------------------------
D-----------------------------------------------------------------------

PRE-CHORUS  x 2
“I hate to love you, love to hate you…”

CHORUS  x 2
“You don’t need your words to sound like this…”

END OF CHORUS: (Into Bridge)
G----------------------------------------------------------------------
D---------------------------------------------------------------------
A---------------------------------------------------------------------
D---2-2-2-2-2-2-2-2-2-2---------------------------------------------

BRIDGE
“You’re just too beautiful…”
G------------------------------------------------------------------------
D------------------------------------------------------------------------
A------------------------------------------------------------------------    x 2 
D—3-3-3-3-3-3-3-3---5-5-5-5-5-5-5-5---0-0-0-0-0-0-0-0***--

***Listen for the rhythm in one of the low D hits.

SOLO/CHORUS/OUTRO
G-------------------------------------------------------------------------
D-------------------------------------------------------------------------
A---2---2-2-2-2—-----------------2---2-2-2-2-----------------------     
D------------------5-5-5----0-2-------------------5-5-5----7---------
            
Submit corrections

comments powered by Disqus
↑ Back to top | Vent Bass for Beautiful Addiction. Lyrics for acoustic guitar and electric guitar. 1 Tablatures and chords are parodies/interpretations of the original songs. You may use it for private study, scholarship, research or language learning purposes only