» » »

Venom, Woman Leather And Hell Tabs (ver.1)

Artists:  A B C D E F G H I J K L M N O P Q R S T U V W X Y Z # 

Woman Leather And Hell Tabs (ver.1)

Venom Tabs
Rating:
0/5 (0 votes)
Woman Leather And Hell lessons Tabs too difficult? Try these video lessons and learn fast
                b=bent
p=pull
t=hammer on

E|-------------------|
B|-------------------|
G|-555-555-555-555-5-|
D|-----------------5-|
A|-----------------3-|
E|-------------------|
1x

E|-----------------|
B|-----------------|
G|-77-4-5-2-3------|
D|-77-4-5-2-3--5-4-|
A|-55-2-3-0-1--5-4-|
E|-------------3-2-|
4x

E|------------------------------|---------------------|
B|------------------------------|---------------------|
G|--------3-XXXX----------------|--------3-XXXX-------|
D|-5-XXXX-3-XXXX-3-XXXX-------5-|-5-XXXX-3-XXXX-33-3B-|
A|-5-XXXX-1-XXXX-3-XXXX-5-3-1-5-|-5-XXXX-1-XXXX-33----|
E|-3-XXXX--------5-XXXX-------3-|-3-XXXX--------11----|
1x

E|------------------------------|---------------------|
B|------------------------------|---------------------|
G|--------3-XXXX----------------|--------3-XXXX-------|
D|-5-XXXX-3-XXXX-3-XXXX-------5-|-5-XXXX-3-XXXX-5-4-3-|
A|-5-XXXX-1-XXXX-3-XXXX-5-3-1-5-|-5-XXXX-1-XXXX-5-4-3-|
E|-3-XXXX--------5-XXXX-------3-|-3-XXXX--------3-2-1-|
1x

E|---------------------|
B|---------------------|
G|-7--3-2---5--7-XX-77-|
D|-7--3-2-5-5--7-XX-77-|
A|-5--1-0-5-3--5-XX-55-|
E|--------3------------|
2x
E|------------------------------------|
B|------------------------------------|
G|-33-X-33--22-X-22--55-X-55--55-X-55-|
D|-33-X-33--22-X-22--55-X-55--55-X-55-|
A|-11-X-11--00-X-00--33-X-33--33-X-33-|
E|------------------------------------|
1x

E|-----------------|
B|-----------------|
G|-77-4-5-2-3------|
D|-77-4-5-2-3--5-4-|
A|-55-2-3-0-1--5-4-|
E|-------------3-2-|
4x

E|---------------------|
B|---------------------|
G|-7--3-2---5--7-XX-77-|
D|-7--3-2-5-5--7-XX-77-|
A|-5--1-0-5-3--5-XX-55-|
E|--------3------------|
2x 

E|------------------------------------|
B|------------------------------------|
G|-33-X-33--22-X-22--55-X-55--55-X-55-|
D|-33-X-33--22-X-22--55-X-55--55-X-55-|
A|-11-X-11--00-X-00--33-X-33--33-X-33-|
E|------------------------------------|
1x

E|---------------------|
B|---------------------|
G|---------------------|
D|-777-777-777-777-7-5-|
A|-555-555-555-555-5-3-|
E|---------------------|
1x

E|-------------------------------------------------|
B|-------------------------------------------------|
G|-------------------------------------------------|
D|-22232222-555--54--2-777--2223222-555-5444-2-777-|
A|-00010000-333--32--0-555--0001000-333-3222-0-555-|
E|-------------------------------------------------|
1x
E|-------|-------------------|
B|-------|-------------------|
G|----7--|---5---5---5---5---|
D|-3--7--|-555-555-555-555-5-|
A|-3--5--|-333-333-333-333-3-|
E|-1-----|-------------------|
1x

here comes the solo, to bad venom didnt used expencive studios, i know there are a lot of mistakes 
E|-15----------------------------------------------------------------|
B|-------------------------------------------------------------------|
G|---12t15p12t15p12t15b-15p14p12-14p12p11-15p14p12-15p14p12-15p14p12-|
D|-------------------------------------------------------------------|
A|-------------------------------------------------------------------|
E|-------------------------------------------------------------------|
1x

E|-------------------------------------------------|
B|-------------------------------------------------|
G|-15b--6-55543-66654-55543-6b-4-6-4-6-4-6-7-6-7-6-|
D|-------------------------------------------------|
A|-------------------------------------------------|
E|-------------------------------------------------|
1x

E|-----------------|
B|-----------------|
G|-77-4-5-2-3------|
D|-77-4-5-2-3--5-4-|
A|-55-2-3-0-1--5-4-|
E|-------------3-2-|
4x

E|------------------------------|---------------------|
B|------------------------------|---------------------|
G|--------3-XXXX----------------|--------3-XXXX-------|
D|-5-XXXX-3-XXXX-3-XXXX-------5-|-5-XXXX-3-XXXX-33-3B-|
A|-5-XXXX-1-XXXX-3-XXXX-5-3-1-5-|-5-XXXX-1-XXXX-33----|
E|-3-XXXX--------5-XXXX-------3-|-3-XXXX--------11----|
1x

E|------------------------------|---------------------|
B|------------------------------|---------------------|
G|--------3-XXXX----------------|--------3-XXXX-------|
D|-5-XXXX-3-XXXX-3-XXXX-------5-|-5-XXXX-3-XXXX-5-4-3-|
A|-5-XXXX-1-XXXX-3-XXXX-5-3-1-5-|-5-XXXX-1-XXXX-5-4-3-|
E|-3-XXXX--------5-XXXX-------3-|-3-XXXX--------3-2-1-|
1x

E|---------------------|
B|---------------------|
G|-7--3-2---5--7-XX-77-|
D|-7--3-2-5-5--7-XX-77-|
A|-5--1-0-5-3--5-XX-55-|
E|--------3------------|
2x

E|------------------------------------|
B|------------------------------------|
G|-33-X-33--22-X-22--55-X-55--55-X-55-|
D|-33-X-33--22-X-22--55-X-55--55-X-55-|
A|-11-X-11--00-X-00--33-X-33--33-X-33-|
E|------------------------------------|c

E|---------------------|---|
B|---------------------|---|
G|---------------------|-7-|
D|-777-777-777-777-7-5-|-7-|
A|-555-555-555-555-5-3-|-5-|
E|---------------------|---|
            
Submit corrections

comments powered by Disqus
↑ Back to top | Venom Tabs for Woman Leather And Hell. Lyrics for acoustic guitar and electric guitar. Tablatures and chords are parodies/interpretations of the original songs. You may use it for private study, scholarship, research or language learning purposes only