>
 >
Rip Ride

Rip Ride Guitar Tabs

Venom - Rip Ride chords, tabs, tablatures, lyrics

Guitar lessons | Add/correct | Request | Top 50 tabs Artists:  A B C D E F G H I J K L M N O P Q R S T U V W X Y Z 0-9

Rip Ride Guitar Tabs – Venom

CD, Sheet music, Poster

Do you like Rip Ride? Share with your friends now
Tabs
RIP RIDE
 By VENOM

 RIFF 1 INTRO & CHORUS                                 |1             |2
 |----------------------|---------|--------------------|--------------|--------|
 |----------------------|---------|--------------------|--------------|--------|
 |----------------------|---------|--------------------|--------------|--------|
 |----------------------|---------|--------------------|--------------|--------|
 |-2-------7*---8*---7*-|-7--5--4-|-2-------7*---8*^^^-|-------2-3-5*-|-/10^^^-|
 |-0-000000--000--000---|-5--3--2-|-0-000000--000------|-2-3-5--------|--------|
     ......  ...  ...                 ......  ...

 1ST SOLO
 |------------------------------------------------------------------------------------------|
 |-17b^^^-14-17-15-14-17-15-14-17-15-14-17-15-14-17-15-14-17-15-14-17-15-14-17-15-14/19b^^^-|
 |------------------------------------------------------------------------------------------|
 |------------------------------------------------------------------------------------------|
 |------------------------------------------------------------------------------------------|
 |------------------------------------------------------------------------------------------|

 |-----------------------------------------------------------------------------------------------------------------------|
 |-14-17-15-14-17-15-14-17-15-14-17-15-14--------------------------------------------------------------------------------|
 |----------------------------------------14-17-15-14-17-15-14-17-15-14-17-15-14-----------------------------------------|
 |-------------------------------------------------------------------------------13-16-14-13-16-14-13-16-14-13-16-14-13b-|
 |-----------------------------------------------------------------------------------------------------------------------|
 |-----------------------------------------------------------------------------------------------------------------------|

 |------------------------------------------------------------------------|
 |-------------------14b--------------------------------------------------|
 |----------14-15-17-----17-15-14----------------14-15-17-15-14-----------|
 |-13-14-16-----------------------16-14-13-14-16----------------16-14-13b-|
 |------------------------------------------------------------------------|
 |------------------------------------------------------------------------|

 |-------------------------------------------------------------------------14-15-17-14-15-17-14-15-17-14-15-17/19b/21fb-|
 |-14-15-17-14-15-17-14-15-17-14-15-17-16-17-19-16-17-19-16-17-19-16-17-19----------------------------------------------|
 |----------------------------------------------------------------------------------------------------------------------|
 |----------------------------------------------------------------------------------------------------------------------|
 |----------------------------------------------------------------------------------------------------------------------|
 |----------------------------------------------------------------------------------------------------------------------|
 

 RIFF 2 VERSE         |1,3     |2,4      |
 |--------------------|--------|---------|--------------------------|
 |--------------------|--------|---------|--------------------------|
 |--------------------|--------|---------|--------------------------|
 |-9-9---7-7---5-5----|-444555-|-4-4-5-5-|------------------4-4-5-5-|
 |-7-7---5-5---3-3----|-222333-|-2-2-3-3-|-2----------------2-2-3-3-|
 |----000---000---000-|--------|---------|-00000000011111111--------|
      ...   ...   ...   ......              ................

 RIFF 1 CHORUS
 RIFF 2 VERSE

 RIFF 3 2ND CHORUS                                                                     BAR
 |---------------------------------------------------------------------------------------------|
 |---------------------------------------------------------------------------------------------|
 |---------------------------------------------------------------------------------------------|
 |---------------------------------------------------------------------------------------------|
 |-2----------------------------------------------------------------------------------2\\\\\\\-|
 |-000000000000000000000000000000000000000000000000000000000000000000000000000000000000\\\\\\\-|
    ..................................................................................

 2ND SOLO
 |1                       |3                      |2,4
 |------------------------|-----------------------|-------------------|
 |------------------------|-----------------------|-------------------|
 |-9------9---------------|---9------9------------|-9------9----------|
 |---9^^^---12-9^^^-10^^^-|-9---9^^^---12-9-10^^^-|---9^^^---12-9\\\\-|
 |------------------------|-----------------------|-------------------|
 |------------------------|-----------------------|-------------------|

 x2
 |----------------------------------|----------------------------------|
 |----------------------------------|----------------------------------|
 |----------------------------------|----------------------------------|
 |----------------------------------|----------------------------------|
 |-77777777555555552222222233333333-|-77777777555555559999999933333333-|
 |----------------------------------|----------------------------------|
   ................................   ................................
                 
                                                                      |x3
 |------------------|--------------------|---------------|------------|---------|
 |------------------|--------------------|---------------|------------|---------|
 |------------------|--------------------|---------------|------------|---------|
 |-9--9-7--7-5--5-4-|-7-9--9-7--7-5--5-4-|-7--9--7--5--4-|-9--7--5--4-|-9-7-5-4-|
 |-7--7-5--5-3--3-2-|-5-7--7-5--5-3--3-2-|-5--7--5--3--2-|-7--5--3--2-|-7-5-3-2-|
 |------------------|--------------------|---------------|------------|---------|
                                                                        . . . . 

 |-------------------------------------------------------------------------------------------------------|
 |-17b^^^-14-17-15-14-17-15-14/19fb^^^-17-15-14-17-15-14-15-13-12-15-13-12-------------------------------|
 |-------------------------------------------------------------------------15-14-12-15-14-12-------------|
 |-------------------------------------------------------------------------------------------15-14-12^^^-|
 |-------------------------------------------------------------------------------------------------------|
 |-------------------------------------------------------------------------------------------------------|
 
   BAR
 |-----------------------15fb^^^-|
 |---------------12b-15b---------|
 |--------5fb^^^-----------------|
 |-------------------------------|
 |-------------------------------|
 |-0\\\\\------------------------|

 RIFF 2 VERSE
 RIFF 1 CHORUS
 
 END
 |-----------|
 |-----------|
 |-----------|
 |-9^^^------|
 |------2-2\-|
 |------0-0\-|





Comments


Popular Venom tabs & chords
Angeldust Bass Tabs
Couldnt Think Of One Tabs
Countess Bathory 3 Tabs
Disbeliever Tabs
Kings Of Evil Tabs
Nightmare Tabs
Resurrection Tabs
Skeletal Dance Intro Tabs
The Evil One Tabs
Warhead 1 Tabs


Song lyrics



↑ Back to top | Tablatures and chords are parodies/interpretations of the original songs. You may use it for private study, scholarship, research or language learning purposes only
© 2014 AZChords.com Contact us | Privacy policy | DMCA | Add/correct tabs | Request tabs | Top 50 tabs